Steely Dan - Kid Charlemagne Chords & Tabs

 

Kid Charlemagne Chords & Tabs

Steely Dan Chords & Tabs

Version: 3 Type: Tab 0 ratings
1 star 2 stars 3 stars 4 stars 5 stars
comments

Kid Charlemagne Tab

Kid Charlemagne
Steely Dan
2nd guitar solo

Submitted by Almir Nametak
mokra@freenetname.co.uk

Hi
this is my first tab submission and please excuse my tabing
inexperience. Please forward me any updates or suggestions or
even if you think you can explain better with these notes-you
are welcome

b=bend up
r=release bend
/=slide

E----------------------------------------------------------------|
B-----10--------8--------6--6--6--8------------------------------|
G-----12b14-----10b12---------------7b9--------------------------|
D----------------------------------------------------------------|
A----------------------------------------------------------------|
E----------------------------------------------------------------|

E----------------------------------------------8-8-8-8-----8-8---|
B-----10--------8--------6--6--6--8-----8-10----------10------10-|
G-----12b14-----10b12---------------7/9--------------------------|
D----------------------------------------------------------------|
A----------------------------------------------------------------|
E----------------------------------------------------------------|


E-----10b12--r10p8--10-8---8----------8-8----8-11b13-r11p10--8--8-|
B------------------------10--10--8/10-----10----------------------|
G-----------------------------------------------------------------|
D-----------------------------------------------------------------|
A-----------------------------------------------------------------|
E-----------------------------------------------------------------|

[ Tab from: http://www.guitartabs.cc/tabs/s/steely_dan/kid_charlemagne_tab_ver_3.html ]
E---------8------15b17----15-14-13----13-14-15-------------------|
B------10--------------------------16----------13-------13-13----|
G--------------------------------------------------12/14---------|
D----------------------------------------------------------------|
A----------------------------------------------------------------|
E----------------------------------------------------------------|


E-------17b21r17--15-16-17------------------------20-------------|
B--------------------------15b17-13----------20b22---20----------|
G-------------------------------------14-12----------------------|
D----------------------------------------------------------------|
A----------------------------------------------------------------|
E----------------------------------------------------------------|


E-------13-14-15-------------------------------15-17-21-17/21----|
B----------------15b17--13-------13--15---15b17------------------|
G--------------------------14-12---12--12------------------------|
D----------------------------------------------------------------|
A----------------------------------------------------------------|
E----------------------------------------------------------------|


E-------21-17/21--------------------------------------------------|
B----------------15b17r15-13/15--13-15-13----13-16b18r16-15-13----|
G------------------------------14---------14-------------------14-|
D-----------------------------------------------------------------|
A-----------------------------------------------------------------|
E-----------------------------------------------------------------|


E----------------------------------------------------------------|
B----------------------------------------------------------------|
G-------12-12/14-------------------------------------------------|
D----------------not sure for the rest as song fades away--------|
A----------------------------------------------------------------|
E----------------------------------------------------------------|


Thanks
Almir
Comments