Steely Dan - Josie Chords & Tabs

 

Josie Chords & Tabs

Steely Dan Chords & Tabs

Version: 2 Type: Bass Tab 0 ratings
1 star 2 stars 3 stars 4 stars 5 stars
comments

Josie Bass Tab

Song: Josie	
Artist: Steely Dan
Tabbed by: Kris Long 
Bass played by: Chuck Rainey

|-------------------11/12-----------11/12-----------11/12-----------11/12--|
|-------------------13/14-----------13/14-----------13/14-----------13/14--|
|-------------4-5------------4-5-------------4-5-------------4-5-----------|
|-1-2-3-4---O--------------O-----O---------O-----O---------O-----O---------|


|--------------------------------------------------6---7-------------------|
|----------------------------------------------3h4---5---------------------|
|-----5-7-5--7------5-4-5h7----7-5-4-5----7---------------------5-7--------|
|-O-O----------O--5---------O-----------O---O-------------O-5-7-----O------|


|--------------------------------------------------------------------------|
|--------------------------------------------------------------------------|
|---5-4--55-x-4-3---(5)-------------------5-7---------5--------------------|
|-5---------------3-----3-x-2-1---O-O-5-7-----O--55-7---3h4h5--------------|

[ Tab from: http://www.guitartabs.cc/tabs/s/steely_dan/josie_btab_ver_2.html ]
|--------------------------------------------------------------------------|
|---------5-3--------------------------------------------------------------|
|-------3--------------5-7\--------------5-7-------------------------------|
|-O-O-5--------O-O-5-7------3-5--O-O-5-7-----O-----------------------------|

Chorus
|--------------------------------------------------------------------------|
|-------2-3-4--------/7-9-10-12---------4-5-7-9-10------------4------------|
|-----2-------2---O-------------12-----------------10-----------2-2-2-2----|
|-1-2-----------O------------------10-----------------8---O-2-----------O--|

Break
|-----------------------------------------------11----99h11----------------|
|-5-7-----5---5-7-----5--------5-7-----5-----11----11----------------------|
|-----5-7---------5-7--------------5-7-----9----------------O-2-2-2-2------|
|------------------------5-7------------------------------------------O----|

On the second time through the verse at the 11/12 13/14 part, he slides up 
and down. When you hear the song you'll know what I mean. During the verse
where you see 2 opens then 5-7E and 5-7A, the second open is played really
fast. Other than that, it's pretty straight forward. If you have any 
questions email me at kris_long_1999@yahoo.com.
Comments