Steel Dragon - We All Die Young Chords & Tabs

 

We All Die Young Chords & Tabs

Steel Dragon Chords & Tabs

Version: 3 Type: Tab 0 ratings
1 star 2 stars 3 stars 4 stars 5 stars
comments

We All Die Young Tab

Steel Dragon - We All Die Young
By: Andrew Mcshan(Guitarguyx182@aol.com)
Tuning - Drop D(DADGBE)
Intro 
E-----------------------------------------------------------------------------
B-----------------------------------------------------------------------------
G-----------------------------------------------------------------------------
D-----------------------------------------------------------------------------
A-10\12-12--12-12--12\14-14/10-10--10-10--9\10-10--10-10-10-10--10/9-9--9-9-9-
D-----------------------------------------------------------------------------
[ Tab from: http://www.guitartabs.cc/tabs/s/steel_dragon/we_all_die_young_tab_ver_3.html ]
E----------------------|
B----------------------|
G-------7h9p7----------|
D--7h9-----------------|
A----------------------|
D----------------------|
Chorus
E-----------------------------|
B-----------------------------|
G-----------------------------|
D--5--4--5--------------------|
A--3--2--5-----0---X-0---0-X--|
D--------5-----0---X-0-X-0-X--|
Verse 2  
E-----------------------------------------------------------------------------
B-8\10-10-10-10-10-10--10\12-12/8-8--8-8-8-8--7\8-8--8-8-8-8--8-8/7-7--7-7-7-7
G-----------------------------------------------------------------------------
D-----------------------------------------------------------------------------
A-----------------------------------------------------------------------------
D-----------------------------------------------------------------------------
Solo Rhythm
E----------------||-------------------------------------||
B----------------||-------------------------------------||
G----------------||-------------------------------------||
D----------------||-------------------------------------||
A--3--5-6-5-3-0--||--3-3-3-3-3-3-3-3--5-5-5-5-5--6-5-3--||
D--3--5-6-5-3-0--||--3-3-3-3-3-3-3-3--5-5-5-5-5--6-5-3--||
Risk my soul, test my life
For my bread
Spend my time lost in space
Am I dead?
Let the river flow
Through my callused hands
And take me from my own
The eyes of the damned

It makes my stomach turn
And it tears my flesh from the bone
How we turn a dream to stone

And we all die young
Yeah we all die young

Tell me I know
I lived so afraid
And still we cry alone
With words left unsaid

Yeh it makes my stomach turn
And it tears my flesh from bone to bone
How we turn a dream to stone

And we all die young
Comments