Steel Dragon - We All Die Young Chords & Tabs

 

We All Die Young Chords & Tabs

Steel Dragon Chords & Tabs

Version: 4 Type: Bass Tab 0 ratings
1 star 2 stars 3 stars 4 stars 5 stars
comments

We All Die Young Bass Tab

   
g|-11h13-13-13-13-13-13-13-13-15-15p13-11-11-11-11-11-11-11-11-10h11-11-11-|
d|-------------------------------------------------------------------------|
a|-------------------------------------------------------------------------|
e|-------------------------------------------------------------------------|

g|11-11-11-11-11-13-13p11-10-10-10-10-10-10-10-11-|
d|------------------------------------------------|
a|------------------------------------------------|
e|------------------------------------------------| <<<< repeat 6 times

g|---------------------------|
d|---------------------------|
a|---------------------------|  <<< repeat 3 times
e|-7-6-3--0--0-0-0-0-0-0-0-0-|

g|---------------------------|
d|---------------------------|
a|---------------------------|
e|-7-6--4--------------------|

  (1:31)

g|-11h13-13-13-13-13-13-13-13-15-15p13-11-11-11-11-11-11-11-11-10h11-11-11-|
d|-------------------------------------------------------------------------|
a|-------------------------------------------------------------------------|
e|-------------------------------------------------------------------------|

g|11-11-11-11-11-13-13p11-10-10-10-10-10-10-10-11-|
d|------------------------------------------------|
a|------------------------------------------------|
e|------------------------------------------------| <<<< repeat 4 times

g|--------------------------|
d|--------------------------|
a|--------------------------| <<<< repeat 4 times
e|7-6-3--0--0-0-0-0-0-0-0-0-|

g|---------------------------|
d|---------------------------|
a|---------------------------|
e|-7-6--4--------------------|

(2:27)
[ Tab from: http://www.guitartabs.cc/tabs/s/steel_dragon/we_all_die_young_btab_ver_4.html ]
g|-11h13-13-13-13-13-13-13-13-15-15p13-11-11-11-11-11-11-11-11-10h11-11-11-|
d|-------------------------------------------------------------------------|
a|-------------------------------------------------------------------------|
e|-------------------------------------------------------------------------|

g|11-11-11-11-11-13-13p11-10-10-10-10-10-10-10-11-|
d|------------------------------------------------|
a|------------------------------------------------|
e|------------------------------------------------| <<< repeat 2 times

 (2:48)
g|----------------------------|
d|----------------------------|
a|-----------4--4-4--4-4-4--4-|
e|-0-2-3-2-0------------------| <<<< repeat 3 times

g|--------------------------------|
d|--------------------------------|
a|--------------------------------|
e|0-0-0-0-0-0-0-0-2-2-2-2-2-3-2-0-|

g|--------------------------|
d|--------------------------|
a|--------------------------| <<<< repeat 3 times
e|7-6-3--0--0-0-0-0-0-0-0-0-|

g|---------------------------|
d|---------------------------|
a|---------------------------|
e|-7-6--4--------------------|

(3:30)
g|-11h13-13-13-13-13-13-13-13-15-15p13-11-11-11-11-11-11-11-11-10h11-11-11-|
d|-------------------------------------------------------------------------|
a|-------------------------------------------------------------------------|
e|-------------------------------------------------------------------------|

g|11-11-11-11-11-13-13p11-10-10-10-10-10-10-10-11-|
d|------------------------------------------------|
a|------------------------------------------------|
e|------------------------------------------------|

g|-11h13-13-13-13-13-13-13-13-15-15p13-11-11-11-11-11-11-11-11-------|
d|-------------------------------------------------------------------|
a|-------------------------------------------------------------6-4---|
e|-----------------------------------------------------------------4-|

If you listen to the music you can figure out the timings on all of these. I didn't put 
in because that's really hard to do. Have fun!!!!
Comments