Steel Dragon - Mary Had A Little Lamb Chords & Tabs

 

Mary Had A Little Lamb Chords & Tabs

Steel Dragon Chords & Tabs

Version: 1 Type: Bass Tab 0 ratings
1 star 2 stars 3 stars 4 stars 5 stars
comments

Mary Had A Little Lamb Bass Tab

   
----------------------------------------------------------------------------
			     Mary had a little lamb
----------------------------------------------------------------------------

Tuning:GDAE

G|-9-7-5-7-9-9-9-7-7-7-9-12-12-9-7-5-7-9-9-9-9-7-7-9-7-5-|
D|-------------------------------------------------------|
A|-------------------------------------------------------|
E|-------------------------------------------------------|
[ Tab from: http://www.guitartabs.cc/tabs/s/steel_dragon/mary_had_a_little_lamb_btab.html ]
G|-9-7-5-7-9-9-9-7-7-7-9-12-12-9-7-5-7-9-9-9-9-7-7-9-7-5-|
D|-------------------------------------------------------|
A|-------------------------------------------------------|
E|-------------------------------------------------------|

G|-9-7-5-7-9-9-9-7-7-7-9-12-12-9-7-5-7-9-9-9-9-7-7-9-7-5-|
D|-------------------------------------------------------|
A|-------------------------------------------------------|
E|-------------------------------------------------------|

G|-9-7-5-7-9-9-9-7-7-7-9-12-12-9-7-5-7-9-9-9-9-7-7-9-7-5-|
D|-------------------------------------------------------|
A|-------------------------------------------------------|
E|-------------------------------------------------------|
Comments