Steel Dragon - Livin The Life Chords & Tabs

 

Livin The Life Chords & Tabs

Steel Dragon Chords & Tabs

Version: 2 Type: Tab 0 ratings
1 star 2 stars 3 stars 4 stars 5 stars
comments

Livin The Life Tab

tabbed by Ben Vasquez C.C. Texas
hey again here is a tab from the rock star sound track this one is 
entitled "Livin' the Life" from Steel Dragon


e---------------------------------------------------------
B---------------------------------------------------------
G---------------------------------------------------------
D----------------------------------------------5---5-4----
A-4-4-4-4--4-4-4-4--4-4-4-4--4-4-4-4--4-4-4-4--3---3-2----
E-2-2-2-2--2-2-2-2--2-2-2-2--2-2-2-2--2-2-2-2----0--------


[ Tab from: http://www.guitartabs.cc/tabs/s/steel_dragon/livin_the_life_tab_ver_2.html ]
e---------------------------------------------------------
B---------------------------------------------------------
G---------------------------------------------------------
D------------------2--------3----------5---5-4------------
A-4----------------0--------2----------3---3-2------------
E-2--------------------------------------0----------------



e---------------------------------------------------------
B---------------------------------------------------------
G---------------------------------------------------------
D--7--------------4---------------------------------------
A--5--------------2---------------------------------------
E---------------------------------------------------------
start singin

well thats it its not very hard i hope you really enjoy it 
this is a cool song and these guys rock for being a fake band 
Comments