Stavesacre - Tranewreck Chords & Tabs

 

Tranewreck Chords & Tabs

Stavesacre Chords & Tabs

Version: 1 Type: Bass Tab 0 ratings
1 star 2 stars 3 stars 4 stars 5 stars
comments

Tranewreck Bass Tab

   
Tranewreck
Stavesacre
(c) Stavesacre and tooth and nail records
By Matt Boes
This may not all be correct, but this is what I heard. 
[ Tab from: http://www.guitartabs.cc/tabs/s/stavesacre/tranewreck_btab.html ]
Intro
G|------------------------------------------------|
D|0-0---0-0---0-0---0-0---0-0---0-0---0-0---0-0---|
A|-3-----3-----3-----3-----3-----3-----3-----3----|
D|---345---345---345---345---345---345---345---345|
Verse
G|---------------------------------------------|
D|---------------------------------------------|
A|3-----3-----3-----3-----3-----3-----3-----3--|
D|-03030-03030-03030-03030-03030-03030-03030-53|
Intro(shorter)
G|------------------------|
D|0-0---0-0---0-0---0-0---|
A|-3-----3-----3-----3----|
D|---345---345---345---345|
Verse(shorter)
G|---------------------|
D|---------------------|
A|3-----3-----3-----3--|
D|-03030-03030-03030-53|
Chorus
G|------|
D|------|
A|0--0--|
D|-35-35|
Repeat shorter verse
Chorus (longer)
G|------------|
D|------------|
A|0--0--0--0--|
D|-35-35-35-35|
Repeat shorter intro
Comments