Stavesacre - Suffocate Me Chords & Tabs

 

Suffocate Me Chords & Tabs

Stavesacre Chords & Tabs

Version: 1 Type: Bass Tab 0 ratings
1 star 2 stars 3 stars 4 stars 5 stars
comments

Suffocate Me Bass Tab

Song: Suffocate Me
Band: Stavesacre
Album: Friction
Label: Tooth and Nail
Tabbed by: Mangity (jickler@hotmail.com)

Tuned in ?Dropped D?.

Intro: 19x, Verse: 16x, Bridge: 16x, in that order.
G-------------|
D-------3333--|
A-------------|
D--2222-------|
(All above listed parts use this riff)

Chorus
First part:
G------------------------------------------------|
D--2-11-0---2-11-0---2-11-0---2-11-0---2222-4-5--|
A---------3--------3--------3--------3-----------|
D------------------------------------------------|
[ Tab from: http://www.guitartabs.cc/tabs/s/stavesacre/suffocate_me_btab.html ]
Middle part: 3x
G------------------------------------------------|
D------------------------------------------------|
A--3333333333-5----------------------------------|
D---------------2-4-5-22222222-4-5-22222222-4-5--|

Last part:
G--------------------------|
D--------------------3333--|
A--3333333333-5------------|
D---------------2222-------|

Repeat the whole thing again, except only do the intro 5x.

Ending: (right after last part of chorus)
G------------------------------------------|
D-------3333------3333------3333-----------|
A------------------------------------------|
D--2222------2222------2222------22-22-22--|

Comments