Stavesacre - Stars And Clouds Chords & Tabs

 

Stars And Clouds Chords & Tabs

Stavesacre Chords & Tabs

Version: 1 Type: Bass Tab 0 ratings
1 star 2 stars 3 stars 4 stars 5 stars
comments

Stars And Clouds Bass Tab

Song: Stars and Clouds
Band: Stavesacre
Allbum: The Absolutes
Label: Tooth and Nail
Tabbed By: Mangity (jickler@homail.com)

Tuned in ?dropped D?.

Intro:

This part: 2x

G---------------------------------------------|
D---------------------------------------------|
A----5---5---4---4---4---4---5---5---4---4-7--|
D--0---0---0---0---0---0---0---0---0---0------|

This part: 3x

G--------------------------|
D----0---0------0---0---0--|
A--3---3---3-22---2---2----|
D--------------------------|

Repeat these 2 parts,then do this:

G-----------------------|
D-----------------------|
A--12\3-12\3-12\3-12\3--|
D-----------------------|

Repeat this whole thing about 4x (includes verse).

Chorus:
[ Tab from: http://www.guitartabs.cc/tabs/s/stavesacre/stars_and_clouds_btab.html ]
G---------------------------------------------------------|
D---------------------------------------------------------|
A--00000----------------------00000-----------------------|
D--------0000000-333333333333-------0000000-333333333333--|

G----------------------------------------------------------|
D----------------------------------------------------------|
A--00000-----------------------00000-----------------------|
D--------0000000-33333-0000000-------0000000-333333333333--|

Repeat verse.

Repeat Chorus.

Bridge:

G---------------------------------|
D---------------------------------|
A--4-5-0-4-5-0-4-5-0-4-5-0-3-222--|
D---------------------------------|
The end is basically the intro a few more times.

Comments