Stavesacre - Loader Chords & Tabs

 

Loader Chords & Tabs

Stavesacre Chords & Tabs

Version: 1 Type: Bass Tab 0 ratings
1 star 2 stars 3 stars 4 stars 5 stars
comments

Loader Bass Tab

   
Loader
Stavesacre
(c) 1996 Tooth and Nail Records
Tabbed By Matt Boes 

Intro
G|-----------------------------------------------|
D|-----------------------------------------------|
A|-----3-----3-----3-----3-----3-----3-----3-----|
D|03435-03435-03435-03435-03435-03435-03435-33344|

First Part
Verse(Play four times)
G|-----------------------|
D|-----------------------|
A|-----3-----3-----3-----|
D|03435-03435-03435-33344|
Chorus
G|-------------------------------------------------------|
D|-------------------------------------------------------|
A|-------------------------------------------------------|
D|0--5556630--5653660--5556630--5653665653665653665556630|
[ Tab from: http://www.guitartabs.cc/tabs/s/stavesacre/loader_btab.html ]
Bridge (Play Verse one more time)
-------------------------------------------------------------
Second part
Play the whole first part but bridge changes:
G|-----------------------------|
D|-----------------------------|
A|-----3-----3-----3-----------|
D|03435-03435-03435-33344-33344|
-------------------------------------------------------------
Third Part
Beginning
G|---------------------------------------------------------------|
D|---------------------------------------------------------------|
A|---------3333------------3333------------3333------------3333--|
D|000043040----04-000043040----04-000043040----04-000043040----04|
Middle (play 10 times)
G|----------------------------|
D|----------------------------|
A|--------3333-----------33-44|
D|0-004304----04-0-004304-----|
A little part thrown in at the end of the ten:
G|--------------|
D|--------------|
A|----3-4----3-4|
D|0------0------|
End:
G|------------  -   -----------------------|
D|------------  -   -----------------------|
A|------------  -   ----3-----3-----3------|
D|0---0---0--- 1/12 3435-03435-03435-333440|


Comments