Stavesacre - Burning Clean Chords & Tabs

 

Burning Clean Chords & Tabs

Stavesacre Chords & Tabs

Version: 1 Type: Tab 0 ratings
1 star 2 stars 3 stars 4 stars 5 stars
comments

Burning Clean Tab

Title: Burning Clean
Album: Friction
Artist: Stavesacre

Tuning: Drop D
Tabbed By: Wes sipes
Email me comments and corrections at: theone988@hotmail.com
(listen to the song for strum patterns)

(lead guitar)
E------------------------------------------------------\
B------------------------------------------------------|
G-----7---7h9 11---11-11h12-11--11-11h12-11---11h12-7--|
D------------------------------------------------------|
A------------------------------------------------------|
D------------------------------------------------------|
                                                       |  1rst part
E------------------------------------------------------|
B------------------------------------------------------|
G----11--11h12-11--11-11h12-11---11h12/14--------------|
D------------------------------------------------------|
A------------------------------------------------------|
D------------------------------------------------------/
 
[ Tab from: http://www.guitartabs.cc/tabs/s/stavesacre/burning_clean_tab.html ]
E------------------------------------------------------\
B------------------------------------------------------|
G----7--7h9-7---7h9-7--7h9-7---7h9-5-------------------|
D-------------repeat---3 times-------------------------|
A------------------------------------------------------|
D------------------------------------------------------|
   ten years running blind and aimlessly...            |  2nd part
E------------------------------------------------------|
B------------------------------------------------------|
G----7--7h9-7--7-7h9-7---7h9/11----11- 7---------------|
D------------------------------------------------------|
A------------------------------------------------------|
D------------------------------------------------------/








1rst
(Backing Guitar-play 1 1/2 times then the lead kicks in on "speak")
D-----------------------------------------------------------
B-----------------------------------------------------------
G-----------------------------------------------------------
D-------------------------------------this is were the lead kicks in at
A----9-9-9-9-10--9-9-9-9--9-9-9-9-10--5-5-7-7-10-10---------
D----9-9-9-9-9---0-0-0-0--9-9-9-9-9---0-0-0-0-0--0----------
 

2nd
then the distortion kicks in
E--------------------------------------------------------
B--------------------------------------------------------
G--------------------------------------------------------
D--------------------------------------------------------
A----9-9-9-9-10--9-9-9-9--9-9-9-9-10--5-5-7-7-10-10------
D----9-9-9-9-9---0-0-0-0--9-9-9-9-9---0-0-0-0-0--0-------



D-----------------------------------------------------------
B-----------------------------------------------------------
G-----------------------------------------------------------
D----3-3-3--2-2-2--0-0-0------------------------------------
A----3-3-3--2-2-2--0-0-0------------------------------------
D----3-3-3--2-2-2--0-0-0------------------------------------


 email for comments        theone988@hotmail.com
Comments