Stavesacre - At The Moment Chords & Tabs

 

At The Moment Chords & Tabs

Stavesacre Chords & Tabs

Version: 1 Type: Bass Tab 0 ratings
1 star 2 stars 3 stars 4 stars 5 stars
comments

At The Moment Bass Tab

   
At the Moment   
Stavescare
Friction
Kenny Southerland Swagmanjr@Juno.com
 
Tune the E string to D
 
Intro, Verse (On this part you strum the 
A string and the D string together leaving
the D string open)
G : --------------------------------
D : 0-0-0-0--0--0--0--0-0-0-0-0-0-0-
A : -5-5-5-10-10-10-12-9-9-9-7-7-7-9 
D : --------------------------------
 
PreChorus (Play the same way as the
intro)
G : -------------------------------------
D : 0-0-0-0-0-0-0-0-0-0-0-0-0--0--0--0---
A : -5-5-5-5-7-7-7-7-9-9-9-9-10-10-10-10-
D : -------------------------------------
 
Chorus
G :-------------------------------------------------------------------------------------------------
D :-------------------------------------------------------------------------------------------------
A :-------------------5-10-9-7-9-------------------5-12-10-9-10------------------5-10-9-7-9-12-12-12
D :-10-10-10-10-12-12------------10-10-10-10-12-12-------------10-10-10-10-12-12--------------------
[ Tab from: http://www.guitartabs.cc/tabs/s/stavesacre/at_the_moment_btab.html ]
  
G :------------------------------------------------------------------------------------------------
D :------------------------------------------------------------------------------------------------
A : 10-10-10-9-9-9-7-9-------------------5-10-9-7-9------------------5-12-10-9-10------------------
D :--------------------10-10-10-10-12-12------------10-10-10-10-12-12------------10-10-10-10-12-12-

G : ----------------------
D : ----------------------
A : -10-10-12-------------
D : --------------10-10-5-

Bridge (Play the same as intro and prechrous)
G :---------------------------------------------------------------------------------------------------------
D :-0-0-0-0-0-0-0-0-0-0-0-0-0-0-0-0-0-0-0-0-0-0-0-0-0-0-0-0-0-0-0-0-0-0-0-0-0-0-0-0-0-0--0--0--0--0--0--0--0
A :5-5-5-5-5-5-5-5-5-5-5-5-5-5-8-8-8-8-8-8-8-8-8-8-8-8-8-8-7-7-7-7-7-7-7-7-7-7-7-7-7-7-10-10-10-10-10-10-10-
D :---------------------------------------------------------------------------------------------------------

G :---------------------------------------------------------------------------------------------------------
D :--0--0--0--0--0--0--0-0-0-0-0-0-0-0-0-0-0-0-0-0-0-0-0-0-0-0-0-0-0-0-0-0-0-0-0-0-0-0-0-0-0-0-0-0-0-0-0-0-0
A :10-10-10-10-10-10-10-5-5-5-5-5-5-5-5-5-5-5-5-5-5-8-8-8-8-8-8-8-8-8-8-8-8-8-8-7-7-7-7-7-7-7-7-7-7-7-7-7-7-
D :---------------------------------------------------------------------------------------------------------

G : -------------------------------
D : ---0--0--0--0--0--0--0--0--0--0
A : -12-10-12-10-12-10-12-10-12-10-
D : -------------------------------

Well kid that's it please E-mail me with corrections. Thank you and God
bless



Comments