Status Quo - Whatever You Want Chords & Tabs

 

Whatever You Want Chords & Tabs

Status Quo Chords & Tabs

Version: 5 Type: Tab 0 ratings
1 star 2 stars 3 stars 4 stars 5 stars
comments

Whatever You Want Tab

   
Status Quo : Whatever you want
==============================
For the intro you need to tune your axe drop-D (from low to high :
D-A-D-G-B-e), but further in the song you don't need that tuning anymore,
in fact, it makes it harder... So I've written the intro in drop-D and the
rest in regular tuning.

Comments welcome via email : bartekoo at pandora dot be

Intro

e|-3-----3-------------3-------2-----2-----3-----2-----
B|-1-1-----1---0h1p0-----0-------3-----3-----3-----3---
G|-----0-----0-------0-----0-------2-----2-----2-----2-  X 2
D|---------------------------0-------------------------
A|-----------------------------------------------------
D|-----------------------------------------------------

e|-----------------------------------
B|---3-----3-----3-----3-----------7-
G|-----0-----0-----0-----0---------7-
D|---------------------------------7-
A|-3-----3-----2-----2-----------5-5-
D|-------------------------3p2-0-----

e|--------------      --------------
B|--------------      --------------
G|------------5-      --------------
D|-0-00-00-00-5-  X 7 -0-00-00------
A|--------------      --------------
D|--------------      --------------
Riff1 (start)
e|----------------------------------------------------------------------------------
B|-8-8-7-7-7----7---7--8-8-7-7-7----7---7--8-8-7-7-7--8-8-7-7-7--8-8-7-7-7----7---7-
G|-7-7-7-7-7----7---7--7-7-7-7-7----7---7--7-7-7-7-7--7-7-7-7-7--7-7-7-7-7----7---7-
D|-9-9-7-7-7--7-7-7-7--9-9-7-7-7--7-7-7-7--9-9-7-7-7--9-9-7-7-7--7-7-7-7-7--7-7-7-7-
A|----------------------------------------------------------------------------------
E|----------------------------------------------------------------------------------

e|----------------------------------------------------------------------------------
B|-8-8-7-7-2---2---2--8-8-7-7-10--8-8-7-7-7--8-8-7-7-7--8-8-7-7-7----7---7----------
G|-7-7-7-7-2---2---2--7-7-7-7-9---7-7-7-7-7--7-7-7-7-7--7-7-7-7-7----7---7----------
D|-9-9-7-7-2---2---2--9-9-7-7-11--9-9-7-7-7--9-9-7-7-7--9-9-7-7-7--7-7-7-7----------
A|---------0-0-0-0-0----------------------------------------------------------------
E|----------------------------------------------------------------------------------
Riff1(stop)

Riff2(start)
e|----------------------------------------------------------------------------------
B|-8-8-7-7-7----7---7--8-8-7-7-7----7---7--8-8-7-7-7--8-8-7-7-7--8-8-7-7-7----7---7-
G|-7-7-7-7-7----7---7--7-7-7-7-7----7---7--7-7-7-7-7--7-7-7-7-7--7-7-7-7-7----7---7-
D|-9-9-7-7-7--7-7-7-7--9-9-7-7-7--7-7-7-7--9-9-7-7-7--9-9-7-7-7--7-7-7-7-7--7-7-7-7-
A|----------------------------------------------------------------------------------
E|----------------------------------------------------------------------------------

e|----------------------------------------------------------------------------------
B|-8-8-7-7-2--------8-8-7-7-10--8-8-7-7-7----7---7--8-8-7-7-7----7---7--------------
G|-7-7-7-7-2-----2--7-7-7-7-9---7-7-7-7-7----7---7--7-7-7-7-7----7---7--------------
D|-9-9-7-7-2-5-4-2--9-9-7-7-11--9-9-7-7-7--7-7-7-7--9-9-7-7-7--7-7-7-7--------------
A|---------0------------------------------------------------------------------------
E|----------------------------------------------------------------------------------
Riff2 (stop)
[ Tab from: http://www.guitartabs.cc/tabs/s/status_quo/whatever_you_want_tab_ver_5.html ]
Riff3
e|-------------------------------------------------------------------------------------
B|-------------------------------------------------------------------------------------
G|-0h2-4-2-4--0h2-4-2-4--0h2-4-2-4--0h2-4---------------------------0h2-4-2-4--0h2-4-2-
D|-0---0-0-0--0---0-0-0--0---0-0-0--0---0-----0h2-5-4-2--0h2-5-4-2--0---0-0-0--0---0-0-
A|--------------------------------------------0---0-0-0--0---0-0-0---------------------
E|----------------------------------------2-3------------------------------------------

Repeat Riff3

Riff4 (start)
e|------13--8---------10--------8---------10-----------
B|-----13---8---------10--------10--------10-----------
G|----14----9---------11--------10--------11-----------
D|---15-----10--------12--------10--------12-----------
A|--15------10--12-12-12--12-12-8---12-12-12--12-12-12-
E|-13-------8---10-10-10--10-10-----10-10-10--10-10-10-

e|------13-------------------------------------------
B|-----13-----------------------------------/10-10-8-
G|----14--------9-9-9-9-9-9-9-9-9-9-9-9-9---/9--9--9-
D|---15----10-9-9-9-9-9-9-9-9-9-9-9-9-9-9-7----------
A|--15-----10-9-7-7-7-7-7-7-7-7-7-7-7-7-7-7----------
E|-13------8--7---------------------------5----------
Riff4 (stop)

Repeat Riff2

Solo (F-F-F-F-G-C-F-E-A)
  F
e|--------------------------------------13-----------13----------------
B|-----------------------------------13-----------13-------------------
G|-------13-13---------13-13--15(17)-------15(17)-------15(17)15-13----
D|-13-15---------13-15----------------------------------------------15-
A|---------------------------------------------------------------------
E|---------------------------------------------------------------------

  F                                    G
e|-----------------------------------------------15-----------15----------------
B|--------------------------------------------15-----------15-------------------
G|-------------------------------------17(19)-------17(19)-------17(19)17-15----
D|-------13-13---------13-13-------15----------------------------------------17-
A|-13-15---------13-15-------13/15----------------------------------------------
E|------------------------------------------------------------------------------

  C                         F              E                               A
|-----8----------------------------------------------13-12-------------------------------
|---8---11-10-8--------------------------------------------15-13(15)13-12--15(17)-15(17)-
|/9-------------11-10-8-----------------10-----12-14-------------------------------------
|-----------------------10-------7-8-10-10-/14-------------------------------------------
|---------------------------8--8---------------------------------------------------------
|----------------------------------------------------------------------------------------


Repeat Riff3

Repeat Riff4

Repeat Riff2 (partly !)

e|------------------------------------------------
B|-8-8-7-7-7--6-6-5-5-5--1-1-0-0-0--2-2-2-2-2-2-2-
G|-7-7-7-7-7--5-5-5-5-5--0-0-0-0-0--2-2-2-2-2-2-2-
D|-9-9-7-7-7--7-7-5-5-5--2-2-0-0-0--2-2-2-2-2-2-2-
A|----------------------------------0-0-0-0-0-0-0-
E|------------------------------------------------

Repeat Riff1 (with variation on A (G-F#-E)) twice, fade out...
Comments