Status Quo - Whatever You Want Chords & Tabs

 

Whatever You Want Chords & Tabs

Status Quo Chords & Tabs

Version: 2 Type: Tab 0 ratings
1 star 2 stars 3 stars 4 stars 5 stars
comments

Whatever You Want Tab

   
E|---3-----3-----------3-------2-----2-----3-----2-----|
B|-1---1-----1-0h1p0-----1-------3-----3-----3-----3---|
G|-------0-----------0-----0-------2-----------2-------|
D|---------------------------0-----------0-------------|
A|-----------------------------------------------------|
D|-----------------------------------------------------|


E|---3-----3-----------3-------2-----2-----3-----2-----|
B|-1---1-----1-0h1p0-----1-------3-----3-----3-----3---|
G|-------0-----------0-----0-------2-----------2-------|
D|---------------------------0-----------0-------------|
A|-----------------------------------------------------|
D|-----------------------------------------------------|


E|------------------------------------5---------|
B|----3------3-----3-----3------------6---------|
G|------0------0-----0-----0----------7---------|
D|------------------------------------7---------|
A|--3-----3------2-----2--------------5---------|
D|---------------------------3-2-0-0------------|


This is the Guitar Solo:


  F
|-----------------|----------------|
|-----------------|----------------|
|-------13----13--|-------13----13-|
|-13-15----15-----|-13-15----15----|
|-----------------|----------------|
|-----------------|----------------|
[ Tab from: http://www.guitartabs.cc/tabs/s/status_quo/whatever_you_want_tab_ver_2.html ]
  F
|-----------13-----------13----------------|
|--------13-----------13-------------------|
|-15(17)-------15(17)-------15(17)15-13----|
|---------------------------------------15-|
|------------------------------------------|
|------------------------------------------|

  F
|------------------------------------|
|------------------------------------|
|------------------------------------|
|-------13-13---------13-13-------15-|
|-13-15---------13-15-------13-15----|
|------------------------------------|

  G
|-----------15-----------15----------------|
|--------15-----------15-------------------|
|-17(19)-------17(19)-------17(19)17-15----|
|---------------------------------------17-|
|------------------------------------------|
|------------------------------------------|

  C                          F
|-----8-------------------------------------|
|---8---11-10-8-------------------------6---|
|-9-------------11-10-8---------------6-5---|
|------------------------10-------6-7-------|
|----------------------------8--8-----------|
|-------------------------------------------|

  E                               A
|----------13-12----------------------------------|
|----------------15-13(15)13-12---15(17)---15(17)-|
|----12-14----------------------------------------|
|-14----------------------------------------------|
|-------------------------------------------------|
|-------------------------------------------------|
Comments