Status Quo - Whatever You Want Solo And Lead Guitar Chords & Tabs

 

Whatever You Want Solo And Lead Guitar Chords & Tabs

Status Quo Chords & Tabs

Version: 1 Type: Tab 1 rating
1 star 2 stars 3 stars 4 stars 5 stars
comments

Whatever You Want Solo And Lead Guitar Tab

   
If you have questions, send me a mail:
heiko.sparenberg@gmx.de

This is the Lead Guitar:

   D
|---------------------------------------------------------------|
|--8--------8-p-7-------7-------7---------7-----7---------------|
|--7--------7-----------7-------7---------7-----7---------------|
|--0--------0-----------0-------0-------0-0---0-0---------------|
|---------------------------------------------------------------|
|---------------------------------------------------------------|
      What      e-ver      you    want

   D
|---------------------------------------------------------------|
|--8--------8-p-7-------7-------7---------7-----7---------------|
|--7--------7-----------7-------7---------7-----7---------------|
|--0--------0-----------0-------0-------0-0---0-0---------------|
|---------------------------------------------------------------|
|---------------------------------------------------------------|
      What      e-ver      you    like

   D
|---------------------------------------------------------------|
|--8--8-p-7--7--7---8----8-p-7--7--7--8--8-p-7--7--7----7----7--|
|--7--7------7--7---7----7------7--7--7--7------7--7----7----7--|
|--0--0------0--0---0----0------0--0--0--0------0--0--0-0--0-0--|
|---------------------------------------------------------------|
|---------------------------------------------------------------|
  
   D            A               D
|---------------------------------------------------------------|
|--8--8-p-7--7------------------8--8-p-7--7--10-----------------|
|--7--7------7--7-----7-----7---7--7------7--9------------------|
|--0--0------0--7-----7-----7---0--0------0--0------------------|
|---------------0--0--0--0--0-----------------------------------|
|---------------------------------------------------------------|
[ Tab from: http://www.guitartabs.cc/tabs/s/status_quo/whatever_you_want_solo_and_lead_guitar_tab.html ]
 
   D
|---------------------------------------------------------------|
|--8--8-p-7--7--7---8----8-p-7--7--7--8--8-p-7--7--7----7----7--|
|--7--7------7--7---7----7------7--7--7--7------7--7----7----7--|
|--0--0------0--0---0----0------0--0--0--0------0--0--0-0--0-0--|
|---------------------------------------------------------------|
|---------------------------------------------------------------|


This is the Guitar Solo:


  F
|-----------------|----------------|
|-----------------|----------------|
|-------13----13--|-------13----13-|
|-13-15----15-----|-13-15----15----|
|-----------------|----------------|
|-----------------|----------------|

  F
|-----------13-----------13----------------|
|--------13-----------13-------------------|
|-15(17)-------15(17)-------15(17)15-13----|
|---------------------------------------15-|
|------------------------------------------|
|------------------------------------------|

  F
|------------------------------------|
|------------------------------------|
|------------------------------------|
|-------13-13---------13-13-------15-|
|-13-15---------13-15-------13-15----|
|------------------------------------|

  G
|-----------15-----------15----------------|
|--------15-----------15-------------------|
|-17(19)-------17(19)-------17(19)17-15----|
|---------------------------------------17-|
|------------------------------------------|
|------------------------------------------|

  C                          F
|-----8-------------------------------------|
|---8---11-10-8-------------------------6---|
|-9-------------11-10-8---------------6-5---|
|------------------------10-------6-7-------|
|----------------------------8--8-----------|
|-------------------------------------------|

  E                               A
|----------13-12----------------------------------|
|----------------15-13(15)13-12---15(17)---15(17)-|
|----12-14----------------------------------------|
|-14----------------------------------------------|
|-------------------------------------------------|
|-------------------------------------------------|

Comments