Status Quo - What Ever You Want Chords & Tabs

 

What Ever You Want Chords & Tabs

Status Quo Chords & Tabs

Version: 1 Type: Bass Tab

What Ever You Want Bass Tab

what ever you want
status quo


 |               |               |               |                
|----------------------------------------------------------------|
|----------------------------------------------------------------|
|5---------5-----5---------5-----5---------5-----5---------5-----|
|----------------------------------------------------------------|

 |               |               |               |                
|----------------------------------------------------------------|
|----------------------------------------------------------------|
|5---------5-----5---------5-----5---------5-----5---5-----5-----|
|----------------------------------------------------------------|

 |               |               |               |                
|----------------------------------------------------------------|
|----------------------------------------------------------------|
|5---------5-----5---------5-----5---------5-----5---5-----5-----|
|----------------------------------------------------------------|

 |               |               |               |                
|----------------------------------------------------------------|
|----------------------------------------------------------------|
|5---------5-----5-----------------------------------------------|
|--------------------------5-----2---------------3---------------|

 |               |               |               |                
|----------------------------------------------------------------|
|----------------------------------------------------------------|
|----------------------------------------------------------------|
|5---------5-----5---------5-----5---------5-----5---------5-----|

 |               |               |               |                
|----------------------------------------------------------------|
|----------------------------------------------------------------|
|----------------------------------------------------------------|
|5---------5-----5---------5-----5---------5-----5---------5-----|

 |               |               |               |                
|----------------------------------------------------------------|
|----------------------------------------------------------------|
|5---------5-----5---------5-----5---------5-----5---5-----5-----|
|----------------------------------------------------------------|

 |               |               |               |                
|----------------------------------------------------------------|
|----------------------------------------------------------------|
|5---------5-----5---------------5-------------------------------|
|--------------------------5-------------------------------------|

 |               |               |               |                
|----------------------------------------------------------------|
|----------------------------------------------------------------|
|5---------5-----5---------5-----5---------5-----5---------5-----|
|----------------------------------------------------------------|

 |               |               |               |                
|----------------------------------------------------------------|
|----------------------------------------------------------------|
|5---------5-----5---------5-----5---------5-----5---5-----5-----|
|----------------------------------------------------------------|

 |               |               |               |                
|----------------------------------------------------------------|
|----------------------------------------------------------------|
|5---------5-----5---------5-----5---------5-----5---5-----5-----|
|----------------------------------------------------------------|

 |               |               |               |                
|----------------------------------------------------------------|
|----------------------------------------------------------------|
|5---------5-----5-----------------------------------------------|
|--------------------------5-----2---------------3---------------|

 |               |               |               |                
|----------------------------------------------------------------|
|----------------------------------------------------------------|
|----------------------------------------------------------------|
|5---------5-----5---------5-----5---------5-----5---------5-----|

 |               |               |               |                
|----------------------------------------------------------------|
|----------------------------------------------------------------|
|----------------------------------------------------------------|
|5---------5-----5---------5-----5---------5-----5---------5-----|

 |               |               |               |                
|----------------------------------------------------------------|
|----------------------------------------------------------------|
|5---------5-----5---------5-----5---------5-----5---------5-----|
|----------------------------------------------------------------|

 |               |               |               |                
|----------------------------------------------------------------|
|----------------------------------------------------------------|
|5---------5-----5---------------5-------------------------------|
|--------------------------5-------------------------------------|

 |               |               |               |                
|----------------------------------------------------------------|
|----------------------------------------------------------------|
|5---------5-----5---------5-----5---------5-----5---5-----5-----|
|----------------------------------------------------------------|

 |               |               |               |                
|----------------------------------------------------------------|
|----------------------------------------------------------------|
|5---------5-----5---------5-----5---------5-----5---------5-----|
|----------------------------------------------------------------|

 |               |               |               |                
|----------------------------------------------------------------|
|----------------------------------------------------------------|
|5---------5-----5---------5-----5---------5-----5---5-----5-----|
|----------------------------------------------------------------|

 |               |               |               |                
|----------------------------------------------------------------|
|----------------------------------------------------------------|
|5---------5-----5-----------------------------------------------|
|--------------------------5-----2---------------3---------------|

 |               |               |               |                
|----------------------------------------------------------------|
|----------------------------------------------------------------|
|----------------------------------------------------------------|
|5---------5-----5---------5-----5---------5-----5---------5-----|

 |               |               |               |                
|----------------------------------------------------------------|
|----------------------------------------------------------------|
|----------------------------------------------------------------|
|5---------5-----5---------5-----5---------5-----5---------5-----|

 |               |               |               |                
|----------------------------------------------------------------|
|----------------------------------------------------------------|
|5---------5-----5---------5-----5---------5-----5---5-----5-----|
|----------------------------------------------------------------|

 |               |               |               |                
|----------------------------------------------------------------|
|----------------------------------------------------------------|
|5---------5-----5---------5-----5---------5-----5---------------|
|----------------------------------------------------2-----3-----|

 |               |               |               |                
|----------------------------------------------------------------|
|----------------------------------------------------------------|
|----------------------------------------------------------------|
|1---------------1---------------1---------------1---------------|

 |               |               |               |                
|----------------------------------------------------------------|
|----------------------------------------------------------------|
|3---------------3---------------3---------------3/--------5-----|
|----------------------------------------------------------------|

 |               |               |               |                
|----------------7/--------5-------------------------------------|
|----------------------------------------------------------------|
|5-----------5-------------------5---------5-----5---------5-----|
|----------------------------------------------------------------|

 |               |               |               |                
|----------------7/--------5-------------------------------------|
|----------------------------------------------------------------|
|5-----------5-------------------5---------5-----5---------------|
|----------------------------------------------------2-----3-----|

 |               |               |               |                
|----------------------------------------------------------------|
|----------------------------------------------------------------|
|----------------------------------------------------------------|
|1---------------1---------1-----1---------1-----1---------1-----|

 |               |               |               |                
|----------------------------------------------------------------|
|----------------------------------------------------------------|
|3---------------3---------3-----2---------2-----2---------2/----|
|----------------------------------------------------------------|

 |               |               |               |                
|----------------------------------------------------------------|
|----------------------------------------------------------------|
|7---7-----7-----7---7-----7-----7---7-----7-----7---7-----7-----|
|----------------------------------------------------------------|

 |               |               |               |                
|----------------------------------------------------------------|
|----------------------------------------------------------------|
|----------------------------------------------------------------|
|5---------------------------------------------------------------|

 |               |               |               |                
|----------------------------------------------------------------|
|----------------------------------------------------------------|
|5---------5-----5---------5-----5---------5-----5---------5-----|
|----------------------------------------------------------------|

 |               |               |               |                
|----------------------------------------------------------------|
|----------------------------------------------------------------|
|5---------5-----5---------5-----5---------5-----5---5-----5-----|
|----------------------------------------------------------------|

 |               |               |               |                
|----------------------------------------------------------------|
|----------------------------------------------------------------|
|5---------5-----5---------5-----5---------5-----5---5-----5-----|
|----------------------------------------------------------------|

 |               |               |               |                
|----------------------------------------------------------------|
|----------------------------------------------------------------|
|5---------5-----5-----------------------------------------------|
|--------------------------5-----2---------------3---------------|

 |               |               |               |                
|----------------------------------------------------------------|
|----------------------------------------------------------------|
|----------------------------------------------------------------|
|5---------5-----5---------5-----5---------5-----5---------5-----|

 |               |               |               |                
|----------------------------------------------------------------|
|----------------------------------------------------------------|
|----------------------------------------------------------------|
|5---------5-----5---------5-----5---------5-----5---------5-----|

 |               |               |               |                
|----------------------------------------------------------------|
|----------------------------------------------------------------|
|5---------5-----5---------5-----5---------5-----5---------5-----|
|----------------------------------------------------------------|

 |               |               |               |                
|----------------------------------------------------------------|
|----------------------------------------------------------------|
|5---------5-----5---------5-----5---------5-----5/--------------|
|----------------------------------------------------------------|

 |               |               |               |                
|----------------------------------------------------------------|
|----------------------------------------------------------------|
|8---------8-----8---------8-----8---------8-----8/--------5-----|
|----------------------------------------------------------------|

 |               |               |               |                
|----------------------------------------------------------------|
|----------------------------------------------------------------|
|----------------0---------0-----1---------1-----1h--2-----------|
|1---------1-----------------------------------------------1-----|

 |               |               |               |                
|----------------------------------------------------------------|
|3---------3-----3---------3-----3---------3-----3p--2-----2-----|
|----------------------------------------------------------------|
|----------------------------------------------------------------|

 |               |               |               |                
|----------------------------------------------------------------|
|----------------------------------------------------------------|
|------------------------------------------------5---------------|
|3---------3-----3---------3-----3---------3---------------3-----|

 |               |               |               |                
|----------------------------------------------------------------|
|------------------------------------------------5---------------|
|3---------------3---------------3---------3---------------3-----|
|----------------------------------------------------------------|

 |               |               |               |                
|----------------------------------------------------------------|
|3---------3-----3---------3-----3---------3-----3p--2-----------|
|----------------------------------------------------------------|
|----------------------------------------------------------------|
[ Tab from: http://www.guitartabs.cc/tabs/s/status_quo/what_ever_you_want_btab.html ]
 |               |               |               |                
|----------------------------------------------------------------|
|2---------2-----2---------2-----2---------2---------------------|
|------------------------------------------------2---------------|
|----------------------------------------------------------0-----|

 |               |               |               |                
|----------------------------------------------------------------|
|----------------------------------------------------------------|
|----------------------------------------------------------------|
|5---------5-----5---------5-----5---------5-----5---------0-----|

 |               |               |               |                
|----------------------------------------------------------------|
|----------------------------------------------------------------|
|----------------------------------------------------------------|
|5---5-----5-----5---5-----5-----5-------------------------------|

 |               |               |               |                
|----------------------------------------------------------------|
|----------------------------------------------------------------|
|5---------5-----5---------5-----5---------5-----5---------5-----|
|----------------------------------------------------------------|

 |               |               |               |                
|----------------------------------------------------------------|
|----------------------------------------------------------------|
|5---------5-----5---------5-----5---------5-----5---------5-----|
|----------------------------------------------------------------|

 |               |               |               |                
|----------------------------------------------------------------|
|----------------------------------------------------------------|
|5---------5-----5---------5-----5---------5-----5---5-----5-----|
|----------------------------------------------------------------|

 |               |               |               |                
|----------------------------------------------------------------|
|----------------------------------------------------------------|
|5---------5-----5-----------------------------------------------|
|--------------------------5-----2---------------3---------------|

 |               |               |               |                
|----------------------------------------------------------------|
|----------------------------------------------------------------|
|----------------------------------------------------------------|
|5---------5-----5---------5-----5---------5-----5---------5-----|

 |               |               |               |                
|----------------------------------------------------------------|
|----------------------------------------------------------------|
|----------------------------------------------------------------|
|5---------5-----5---------5-----5---------5-----5---------5-----|

 |               |               |               |                
|----------------------------------------------------------------|
|----------------------------------------------------------------|
|5---------5-----5---------5-----5---------5-----5---5-----5-----|
|----------------------------------------------------------------|

 |               |               |               |                
|----------------------------------------------------------------|
|----------------------------------------------------------------|
|5---------5-----5---------5-----5---------5-----5---------------|
|----------------------------------------------------2-----3-----|

 |               |               |               |                
|----------------------------------------------------------------|
|----------------------------------------------------------------|
|----------------------------------------------------------------|
|1---------------1---------------1---------------1---------1-----|

 |               |               |               |                
|----------------------------------------------------------------|
|----------------------------------------------------------------|
|3---------------3---------3-----3---------3-----3---------3-----|
|----------------------------------------------------------------|

 |               |               |               |                
|--------------5/7-----------------------------------------------|
|----------------------------------------------------------------|
|5---------5---------------------5---------5-----5---5-----5-----|
|----------------------------------------------------------------|

 |               |               |               |                
|--------------5/7-----------------------------------------------|
|----------------------------------------------------------------|
|5---------5---------------------5---------5-----5---------------|
|----------------------------------------------------2-----3-----|

 |               |               |               |                
|----------------------------------------------------------------|
|----------------------------------------------------------------|
|----------------------------------------------------------------|
|1---------------1---------------1---------1-----1---------1-----|

 |               |               |               |                
|----------------------------------------------------------------|
|----------------------------------------------------------------|
|3---------3-----3---------3-----2---------2-----2---------2/----|
|----------------------------------------------------------------|

 |               |               |               |                
|----------------------------------------------------------------|
|----------------------------------------------------------------|
|7---7-----7-----7---7-----7-----7---7-----7-----7---7-----7-----|
|----------------------------------------------------------------|

 |               |               |               |                
|----------------------------------------------------------------|
|----------------------------------------------------------------|
|----------------------------------------------------------------|
|5---------------------------------------------------------------|

 |               |               |               |                
|----------------------------------------------------------------|
|----------------------------------------------------------------|
|5---------5-----5---------5-----5---------5-----5---------5-----|
|----------------------------------------------------------------|

 |               |               |               |                
|----------------------------------------------------------------|
|----------------------------------------------------------------|
|5---------5-----5---------5-----5---------5-----5---5-----5-----|
|----------------------------------------------------------------|

 |               |               |               |                
|----------------------------------------------------------------|
|----------------------------------------------------------------|
|5---------5-----5---------5-----5---------5-----5---5-----5-----|
|----------------------------------------------------------------|

 |               |               |               |                
|----------------------------------------------------------------|
|----------------------------------------------------------------|
|5---------5-----5-----------------------------------------------|
|--------------------------5-----2---------------3---------------|

 |               |               |               |                
|----------------------------------------------------------------|
|----------------------------------------------------------------|
|----------------------------------------------------------------|
|5---------5-----5---------5-----5---------5-----5---5-----5-----|

 |               |               |               |                
|----------------------------------------------------------------|
|----------------------------------------------------------------|
|----------------------------------------------------------------|
|5---------5-----5---------5-----5---------5-----5---5-----5-----|

 |               |               |               |                
|----------------------------------------------------------------|
|----------------------------------------------------------------|
|5---------5-----5---------5-----5---------5-----5---------------|
|----------------------------------------------------2-----3-----|

 |               |               |               |                
|----------------------------------------------------------------|
|----------------------------------------------------------------|
|3---------3-----3---------3-----3---------3-----3---3-----3-----|
|----------------------------------------------------------------|

 |               |               |               |                
|----------------------------------------------------------------|
|----------------------------------------------------------------|
|----------------------------------------------------------------|
|3---------3-----3---------3-----3---------3-----3---3-----3-----|

 |               |               |               |                
|----------------------------------------------------------------|
|----------------------------------------------------------------|
|----------------------------------------------------------------|
|5---------------5---------------5---------------5---------0-----|

 |               |               |               |                
|----------------------------------------------------------------|
|-------------------------------------------------B R E A K -----|
|----------------------------------------------------------------|
|5---5-----5-----5---5-----5-----5-------------------------------|

 |               |               |               |                
|----------------------------------------------------------------|
|----------------------------------------------------------------|
|5---------5-----5---------5-----5---------5-----5---------5-----|
|----------------------------------------------------------------|

 |               |               |               |                
|----------------------------------------------------------------|
|----------------------------------------------------------------|
|5---------5-----5---------5-----5---------5-----5---5-----5-----|
|----------------------------------------------------------------|

 |               |               |               |                
|----------------------------------------------------------------|
|----------------------------------------------------------------|
|5---------5-----5---------5-----5---------5-----5---------5-----|
|----------------------------------------------------------------|

 |               |               |               |                
|----------------------------------------------------------------|
|----------------------------------------------------------------|
|5---------5-----5-----------------------------------------------|
|--------------------------5-----2---------------3---------------|

 |               |               |               |                
|----------------------------------------------------------------|
|----------------------------------------------------------------|
|----------------------------------------------------------------|
|5---------5-----5---------5-----5---------5-----5---5-----5-----|

 |               |               |               |                
|----------------------------------------------------------------|
|----------------------------------------------------------------|
|----------------------------------------------------------------|
|5---------5-----5---------5-----5---------5-----5---5-----5-----|

 |               |               |               |                
|----------------------------------------------------------------|
|----------------------------------------------------------------|
|5---------5-----5---------5-----5---------5-----5---5-----5-----|
|----------------------------------------------------------------|

 |               |               |               |                
|------------------------5-------7---7---7-------7---5-----------|
|--------------------7-----------------------------------7-------|
|5---------------5-----------------------------------------------|
|----------------------------------------------------------------|

 |               |               |               |                
|----------------------------------------------------------------|
|----------------------------------------------------------------|
|5---------5-----5---------5-----5---------5-----5---5-----5-----|
|----------------------------------------------------------------|

 |               |               |               |                
|----------------------------------------------------------------|
|----------------------------------------------------------------|
|5---------5-----5---------5-----5---------5-----5---5-----5-----|
|----------------------------------------------------------------|

 |               |               |               |                
|----------------------------------------------------------------|
|----------------------------------------------------------------|
|5---------5-----5---------5-----5---------5-----5---5-----5-----|
|----------------------------------------------------------------|

 |               |               |               |                
|----------------------------------------------------------------|
|----------------------------------------------------------------|
|5---------5-----5-----------------------------------------------|
|--------------------------5-----2---------------3---------------|

 |               |               |               |                
|----------------------------------------------------------------|
|----------------------------------------------------------------|
|----------------------------------------------------------------|
|5---------5-----5---------5-----5---------5-----5---------5-----|

 |               |               |               |                
|----------------------------------------------------------------|
|----------------------------------------------------------------|
|----------------------------------------------------------------|
|5---------5-----5---------5-----5---------5-----5---------5-----|

 |               |               |               |                
|----------------------------------------------------------------|
|----------------------------------------------------------------|
|5---------5-----5---------5-----5---------5-----5---------5-----|
|----------------------------------------------------------------|

 |               |               |               |                
|----------------------------------------------------------------|
|----------------------------------------------------------------|
|5---0-----0-----2---------------3---------------4---------------|
|----------------------------------------------------------------|

 |               |               |               |                
|----------------------------------------------------------------|
|----------------------------------------------------------------|
|5---------5-----5---------5-----5---------5-----5---------5-----|
|----------------------------------------------------------------|