Status Quo - Umleitung Chords & Tabs

 

Umleitung Chords & Tabs

Status Quo Chords & Tabs

Version: 1 Type: Bass Tab

Umleitung Bass Tab

UMLEITUNG
STATUS QUO


Riff 1
|---------------------|---------------------|
|-2-----------2-------|-------2-------------|
|---3-2-3-------3-2-3-|---------3-2-3-----2-|
|---------------------|---------------------|

Riff 2
||----------------------||
||-*------------------*-||
||-*-3--33--33--33--3-*-||
||----------------------||

Riff 3
|-----------------|---------------------|---------------------|
|-----------------|-2-----------2-------|-------2-------------|
|-3--33--33--33---|---3-2-3-------3-2-3-|---------3-2-3-----3-|
|-----------------|---------------------|---------------------|
[ Tab from: http://www.guitartabs.cc/tabs/s/status_quo/umleitung_btab.html ]
Riff 4
||-------------------|--------------------||
||-*-----------------|-------------3----*-||
||-*-3--33--33--33--3|-3--33--33-----3--*-||
||-------------------|--------------------||

Riff 5
|-----------------|-----------------|-----------------|
|-----------------|-----------------|-----------------|
|-3--33--33--33--3|-3---5-----1-----|-3-----5556666773|
|-----------------|-----------------|-----------------|

Riff 6
||-------------------|--------------------||
||-*-----------------|-------------3----*-||
||-*-2--33--33--33--3|-3--33--33--3---3-*-||
||-------------------|--------------------||