Status Quo - Thinking Of You Chords & Tabs

 

Thinking Of You Chords & Tabs

Status Quo Chords & Tabs

Version: 1 Type: Tab 0 ratings
1 star 2 stars 3 stars 4 stars 5 stars
comments

Thinking Of You Tab

Status quo - Thinking of you

INTRO

E---------------------------------------------------------|
B--12-0-10-0-9-0-9-0-10-0-12--12-0-10-0-9-0-9-0-10-0-12---|
G---------------------------------------------------------|
D---------------------------------------------------------|
A---------------------------------------------------------|
E---------------------------------------------------------|
[ Tab from: http://www.guitartabs.cc/tabs/s/status_quo/thinking_of_you_tab.html ]
E---------------------------------------------------------------|
B--12-0-10-0-9-0-9-0-10-0-12-12-14-0-12-0-10-0-12-0-10-0-9-0-10-|
G---------------------------------------------------------------|
D---------------------------------------------------------------|
A---------------------------------------------------------------|
E---------------------------------------------------------------|

VERSE

E---------------------------------------------|
B---------------------------------------------|
G--9-9-------------------9-9------------------|
D--9-9--9-9--13-13--7-7--9-9--9-9--13-13--7---|
A--7-7--9-9--13-13--7-7--7-7--9-9--13-13--7---|
E-------7-7--11-11--5-5-------7-7--11-11--5---|

Haven't worked out chorus yet, sorry!
This is my first tab and I'm only 13! 

By Tom Saunders
Comments