Status Quo - Something Going On In My Head Chords & Tabs

 

Something Going On In My Head Chords & Tabs

Status Quo Chords & Tabs

Version: 1 Type: Bass Tab

Something Going On In My Head Bass Tab

||---------------------||
||-*-----------------*-||
||-*-------------3---*-||
||---03---03---03------||

SOMETHING GOING ON IN MY HEAD
STATUS QUO


                                         4x
||-------------------|--------------------||
||-*-----------------|------------------*-||
||-*-----------------|-------------3----*-||
||---03---03---035---|-03---03---03-------||
[ Tab from: http://www.guitartabs.cc/tabs/s/status_quo/something_going_on_in_my_head_btab.html ]
                                         3x
||-------------------|--------------------||
||-*-----------------|------------------*-||
||-*-3--33--33--33--3|-3--33--35--13--3-*-||
||-------------------|--------------------||

||-------------------|--------------------||
||-*-----------------|------------------*-||
||-*-3--33--33--33--3|-5--51--11--11--1-*-||
||-------------------|--------------------||

|-----------------|-----------------|
|-----------------|-----------------|
|-3--33--33--33--3|-5--51-----------|
|-----------------|-----------------|