Status Quo - Dont Drive My Car Chords & Tabs

 

Dont Drive My Car Chords & Tabs

Status Quo Chords & Tabs

Version: 1 Type: Bass Tab

Dont Drive My Car Bass Tab

   
DON'T DRIVE MY CAR
STATUS QUO


E:-9-9-8-9-9-9-55-8-5-9-9-8-9-9-9-55-8-5-|
A:---------------------------------------|
D:---------------------------------------|
G:---------------------------------------|

E:-3-3-1-3-3-3-1-1-3-1-9-9-8-9-9-9-55-8-5-9-|
A:------------------------------------------|
D:------------------------------------------|
G:------------------------------------------|
repeat this along with the vocals
[ Tab from: http://www.guitartabs.cc/tabs/s/status_quo/dont_drive_my_car_btab.html ]
bridge:
	im tellin you woman     don't push me to far
E:-8-7-6-------------------8-7-6-------------------|
A:-------------------------------------------------|
D:-------------------------------------------------|
G:-------------------------------------------------|
	im tellin you straight don't drive my car
E:-8-7-6----------------------------------------|back into
A:----------------------------------------------|main rythm
D:----------------------------------------------|
G:----------------------------------------------|