Status Quo - Big Fat Mama Chords & Tabs

 

Big Fat Mama Chords & Tabs

Status Quo Chords & Tabs

Version: 1 Type: Tab 0 ratings
1 star 2 stars 3 stars 4 stars 5 stars
comments

Big Fat Mama Tab

   
#----------------------------------PLEASE NOTE--------------------------------#
#This file is the author's own work and represents their interpretation of the#
#song. You may only use this file for private study, scholarship, or research.#
#-----------------------------------------------------------------------------#

Date: Thu, 2 Apr 1998 00:14:49 +0200 (CEST)
From: Peter Eybert 
Subject: TAB: Big Fat Mama by Status Quo

Big Fat Mama

written by Rossi/Parfitt
performed by Status Quo
from "Piledriver", 1972


-----------------|-----------------|-----------------|
-----------------|-----------------|-----------------|
-----------------|-----------------|-----------------|
-----------------|-----------------|-----------------|
-----------0-6-7-|-0----0----0-6-7-|-0----0----0-6-7-|
-----------------|-----------------|-----------------|

-----------------|-----------------|-----------------|
-----------------|-----------------|-----------------|
-----------------|-----------------|-------------4-5-|
-----------------|-----------------|---------7-5-----|
-0----0----0-6-7-|-0----0----0-6-7-|-0-7-5-0---------|
-----------------|-----------------|-----------------|

-----------------|-----------------|-----------------|
-----------------|-----------------|-----------------|
-------------4-5-|-------------4-5-|-------------4-5-|
---------7-5-----|---------7-5-----|---------7-5-----|
-0-7-5-0---------|-0-7-5-0---------|-0-7-5-0---------|
-----------------|-----------------|-----------------|

-----------------|-----------------|-----------------|
-----------------|-----------------|-/10---------10\-|
-------------4-5-|-------------4-5-|-----------------|
---------7-5-----|---------7-5-----|-----------------|
-0-7-5-0---------|-0-7-5-0---------|-----------------|
-----------------|-----------------|-----------------|

-----------------|-----------------|
-----------------|-----------------|
-----------------|-----------------|
-2-2-2-2-2-2-2-2-|-2-2-2-4---2-----|
-0-0-3-3-0-0-3-3-|-0-0-3-5---3-----|
-----------------|-----------------|
 A   C   A   C     A   C D   C


D  E  A
[ Tab from: http://www.guitartabs.cc/tabs/s/status_quo/big_fat_mama_tab.html ]
-----------------|-----------------|-----------------|-----------------|
-----------------|-----------------|-----------------|-----------------|
-----------------|-----------------|-----------------|-----------------|
-------0-2-0-----|-------0-0h2p0--2|-------0-2-0-----|-------0-0h2p0--2|
-0-2-3-------3-2-|-0-2-3-----------|-0-2-3-------3-2-|-0-2-3-----------|
-----------------|-----------------|-----------------|-----------------|
 Am                Am                Am                Am
 
-----------------|-----------------|-----------------|-----------------|
-----------------|-----------------|-----------------|-----------------|
-----------------|-----------------|-----------------|-----------------|
-2-3-2-0---------|-2-3-2-0---------|-2-3-2-0---------|-----------------|
---------2-3-2-0-|---------2-3-2-0-|---------2-3-2-0-|-2-3-2---0-------|
-----------------|-----------------|-----------------|-------3---------|
 Am      E         Am      E         Am      E         E7      Am
[2 times, then:]

-----------------|-----------------|-----------------|-----------------|
-----------------|-----------------|-----------------|-----------------|
-----------------|-----------------|-----------------|-----------------|
-----------------|-----2-----------|-----5-4---------|-5-4-3-----------|
-0-2-3-----------|-0-3-------------|-0-3-------------|-----------------|
-----------------|-----------------|-----------------|-----------------|
 Am                Am                Am    D7              Dm7

-----------------|-----------------|-----------------|-----------------|
-----------------|-----------------|-----------------|-----------------|
-----------------|-----------------|---------2-------|-0---------------|
-2-0-2-----------|-0---0-----------|---------2-------|-2---------------|
-----------------|---3-------------|-2---3---0-------|-0---------------|
-----------------|-----------------|-----------------|-----------------|
 Am                    D             G   Dm7 A5        A7no3

-----------------|-----------------|-----------------|-----------------|
-----------------|-----------------|-----------------|-----------------|
-----------------|-----------------|-----------------|-----------------|
-2-4-5-4-2-4-5-4-|-2-4-5-4-2-4-5-4-|-2-4-5-4-2-4-5-4-|-2-4-5-4-2-4-5-4-|
-0-0-0-0-0-0-0-0-|-0-0-0-0-0-0-0-0-|-0-0-0-0-0-0-0-0-|-0-0-0-0-0-0-0-0-|
-----------------|-----------------|-----------------|-----------------|
 A                 A                 A                 A




-----------------|----------------|
-----------------|----------------|
-----------------|----------------|
-------------5-4-|3-2-1-0---------|
-------5-4-3-----|--------4-3-2-1-|
-5-4-3-----------|----------------|



[during Solo:]
|A  C  D  A|

CODA:
|A  G | A


Thanks to J.Carlos Palazon for sending these lyrics
Transcribed by Peter Eybert 
-- 
pjoe@charon.muc.de
 
 
Comments