Status Quo - A Year Chords & Tabs

 

A Year Chords & Tabs

Status Quo Chords & Tabs

Version: 1 Type: Tab

A Year Tab

   
A Year
Status Quo
[ Tab from: http://www.guitartabs.cc/tabs/s/status_quo/a_year_tab.html ]
intro:
  E|--------------------------------------------|
  B|-----1-----1-----1--------1-----1-----1-----|
  G|--------2-----2-----2--------2-----2-----2--|
  D|--------------------------------------------|
  A|--0--------------0--------------------------|
  E|-----------------------3--------------3-----|


  E|--------------------------------------------|
  B|-----1-----1-----1--------0-----0-----0-----|
  G|--------2-----2-----2--------2-----2-----2--|
  D|--------------------------------------------|
  A|--------------------------------------------|
  E|--2--------------2-----1--------------1-----|