Static X - Wisconsin Death Trip Chords & Tabs

 

Wisconsin Death Trip Chords & Tabs

Static X Chords & Tabs

Version: 1 Type: Tab 0 ratings
1 star 2 stars 3 stars 4 stars 5 stars
comments

Wisconsin Death Trip Tab

   
Static-X /Wisconsin Death Trip /Wisconsin Death Trip

Drop -D



Intro

Just scraping the string here seems to work
------------------------------------------------------------
------------------------------------------------------------
------------------------------------------------------------
------------------------------------------------------------
------------------------------------------------------------
-----3-----3-----3--3-----3-----3-----3-----3---------------


[ Tab from: http://www.guitartabs.cc/tabs/s/static_x/wisconsin_death_trip_tab.html ]
Main Riff
------------------------------------------------------------
------------------------------------------------------------
------------------------------------------------------------
-----4-----0-----4-----0-----4-----0-----4-----0------------
-----4-----0-----4-----0-----4-----0-----4-----0------------
-----4-----0-----4-----0-----4-----0-----4-----0------------

     Whats wrong Don't you   sing  dong  ding  dong





Chorus
------------------------------------------------------------
------------------------------------------------------------
------------------------------------------------------------
6--5---6--5----6--5----6--5----1--0----1--0----1--0----1-0--
6--5---6--5----6--5----6--5----1--0----1--0----1--0----1-0--
6--5---6--5----6--5----6--5----1--0----1--0----1--0----1-0--
Get up on this wisconsin death trip


-22--22--22--22--22--22-22-
---------------------------
---------------------------
---------------------------
---------------------------
---------------------------


This is another (sic)ass tab from Static-x! Enjoi
Comments