Static-x - Transmission Chords & Tabs

 

Transmission Chords & Tabs

Static-x Chords & Tabs

Version: 1 Type: Tab 0 ratings
1 star 2 stars 3 stars 4 stars 5 stars
comments

Transmission Tab

   
I did this in standard tuning: E A D G B E

|----------------------------------------------------------------------|
|----------------------------------------------------------------------|
|----------------------------------------------------------------------|
|-22----3-22----22----3-22----5-22----3-22----22----3-22---------------|
|-22----3-22----22----3-22----5-22----3-22----22----3-22---------------|
|-00----1-00----00----1-00----3-00----1-00----00----1-00---------------|
[ Tab from: http://www.guitartabs.cc/tabs/s/static_x/transmission_tab.html ]
|----------------------------------------------------------------------|
|----------------------------------------------------------------------|
|-12h13----------------------------------------------------------------|
|----------------------------------------------------------------------|
|----------------------------------------------------------------------|
|----------------------------------------------------------------------|
                    The part above goes sixteen times.
|----------------------------------------------------------------------|
|----------------------------------------------------------------------|
|----------------------------------------------------------------------|
|-22----3-22----22----3-22----5-22----3-22----22----3-22---------------|
|-22----3-22----22----3-22----5-22----3-22----22----3-22---------------|
|-00----1-00----00----1-00----3-00----1-00----00----1-00---------------|

|----------------------------------------------------------------------|
|----------------------------------------------------------------------|
|-12h13----------------------------------------------------------------|
|----------------------------------------------------------------------|
|----------------------------------------------------------------------|
|----------------------------------------------------------------------|
            Do this again except this time you do it 32 times.
Comments