Static X - This Is Not Chords & Tabs

 

This Is Not Chords & Tabs

Static X Chords & Tabs

Version: 1 Type: Tab 0 ratings
1 star 2 stars 3 stars 4 stars 5 stars
comments

This Is Not Tab

e|-------8--8--8--8--8--10h11--8--8--8--8--10h11--8--8--8--8||
B|---------------------------------------------------------.||
g|----------------------------------------------------------||
d|----------------------------------------------------------||
a|---------------------------------------------------------.||
e|----------------------------------------------------------||

repet two times
[ Tab from: http://www.guitartabs.cc/tabs/s/static_x/this_is_not_tab.html ]
e|---------------------------------||--------------------------
b|---------------------------------||--------------------------
g|---------------------------------||--------------------------
d|---------------------------------||--------------------------
a|---------------------------------||-------------------------6
e|--6-h-0----0---6-h-0---0----6--0-||---6-h-0-----0---6-h-0-0-6

repet three times


e|--------------------------||   t    ||--------------------  
b|----12--12--12--12--12--12||  s     ||-------------------- 
g|--------------------------|| e      ||--------------------
d|--------------------------||r      ||-------------------- 
a|--------------------------||        ||----7--6-x-x-x-x-x-x
e|--------------------------||        ||----7--6-x-x-x-x-x-x
Comments