Static-x - The Trance Is The Motion Chords & Tabs

 

The Trance Is The Motion Chords & Tabs

Static-x Chords & Tabs

Version: 1 Type: Tab 0 ratings
1 star 2 stars 3 stars 4 stars 5 stars
comments

The Trance Is The Motion Tab

   
Static-X
"The Trance is the Motion"
CD: Wisconsin Death Trip/1999
Tabbed by mark little (wisconsin_death_trip69@hotmail.com)
Send corrections,comments, or Dope tabs to the above address. If u need a
tuner, email me.
Tab key:
h-hammer on
p-pull off
~-vibrato (let ring)
( )-ghost note
^-bend
x-dead note
P.M.-palm mute
Tune your guitar like this: B Gb B E Ab Db
IF YOU NEED A TUNER, EMAIL ME.
Bass in the intro:
F--------------------
C--------------------
G--------------------  x4
C-0~~~-0-0-----------
Riff A:
D-----13^-------13^---------------------------
A---------------------------------------------
F---------------------------------------------
C--1-------1-1-------1-1-1-1-1-1-1-1----------
G--1-------1-1-------1-1-1-1-1-1-1-1----------
C--1-------1-1-------1-1-1-1-1-1-1-1----------
  P.M.     P.M.      _____P.M._______
Riff B:
D----14-13~~~~~-let ring-------------------
A----------------12h13~~~~~~-let ring---------
F---------------------------------------------
C---------------------------------------------
G---------------------------------------------
C---------------------------------------------
[ Tab from: http://www.guitartabs.cc/tabs/s/static_x/the_trance_is_the_motion_tab.html ]
Riff C:
D---------------------------------------------
A---------------------------------------------
F---------------------------------------------
C-0~~~~~~1~~~~~~~~----------------------------
G-0~~~~~~1~~~~~~~~----------------------------
C-0~~~~~~1~~~~~~~~----------------------------

Riff D:
D---------------------------------------------
A---------------------------------------------
F---------------------------------------------
C-0~~~~~~~~~~~~~~~~---------------------------
G-0~~~~~~~~~~~~~~~~---------------------------
C-0~~~~~~~~~~~~~~~~---------------------------

Riff E:
D---------------------------------------------
A---------------------------------------------
F---------------------------------------------
C---------------------------------------------
G-(x)~~~~-------------------------------------
C---------------------------------------------
TOUCH FINGER LIGHTLY
Riff F:
D----14-13-
A----------
F----------
C----------
G----------
C----------
Order of Riffs:
Bass line x4
Riff A x4
Riff B x2
Riff A X4
Riff B x2
Riff C x4
Riff D x1
Riff E x1
Riff D x2
Riff A x4
Riff B x2
Riff F x4
Riff C x6
There it is, pretty simple huh?

wisconsin_death_trip69@hotmail.com
Comments