Static-x - The Only Chords & Tabs

 

The Only Chords & Tabs

Static-x Chords & Tabs

Version: 1 Type: Bass Tab 0 ratings
1 star 2 stars 3 stars 4 stars 5 stars
comments

The Only Bass Tab

~~~~~~~~~~~~~~~~~~~~~~~Static-X~~~~~~~~~~~~~~~~~~~~~~~

~~~~~~~~~~~~~~~~~~~~~~~The Only~~~~~~~~~~~~~~~~~~~~~~~

The only
by: Zack Anderson
gb_packers152004@hotmail.com

Intro
G|---------------------
D|---------------------
A|------------3-3--2-2-
E|-0-0--0-0------------
Continued...
G|----------------------------------------|
D|-------------------------1-1-1-1--333-4-|
A|---------------3-3-3-3------------------|
E|-0---0-0-0-0----------------------------|

Verse 1
G|------------------------------|
D|------------------------------|
A|------------------------------|  x4
E|-00--0-000--34---3-333-4------|
[ Tab from: http://www.guitartabs.cc/tabs/s/static_x/the_only_btab.html ]
Chorus             x1                                   Repeated
G|-----------------------------------------------------|----------|
D|---------------------------------1--1-1-1--1-1--333-4|----------|
A|-----------------3--3-3-3--3-3-----------------------|-11112333-|
E|-0--0-0-0--0-0---------------------------------------|----------|

Verse 2
G|-----------------------------|
D|-----------------------------|
A|-----------------------------|  x4
E|-00--0-000--33---3-333-4-----|

Bridge   x4
G|-------------|-------------|
D|-------------|-------------|
A|-------------|-------------|  Guitar plays most alone!!
E|-0-22-322-6--|-1-33-4-3~---|

Outro
G|---------------------|
D|---------------------|
A|---------------------|
E|-1--1-111--0--0-000--|

Thats all there is 2 it :D
Comments