Static X - Structural Defect Chords & Tabs

 

Structural Defect Chords & Tabs

Static X Chords & Tabs

Version: 1 Type: Tab 0 ratings
1 star 2 stars 3 stars 4 stars 5 stars
comments

Structural Defect Tab

--------------------------------------------------------------------
Band : Static-X
Song : Structural Defect
Tuning : I used to use a standard tuning so if theres
             any problems please tell me.
--------------------------------------------------------------------
There is two guitars in this song.  And I didn't wrote the number
of time each riff should be played, because it's very hard in that song.

Riff 1
Guitar 1
|-----------------------------|
|-----------------------------|
|-----------------------------|
|-----------------------------|
|-----------------------------|
|-(0)---0000000--0000--|Palm Mute
   ^only the fist time

Riff 2 (0:08)
Guitar 1
|-----------------------|
|-----------------------|
|-----------------------|
|-----------------------|
|-----------------------|
|-0000000--0000--|Palm Mute
Guitar 2
|-----------------------|
|-----------------------|
|-----------------------|
|-----------------------|
|-----------------------|
|-0000000--0000--|Palm Mute

Riff 3 (0:31)
Guitar 1
|-----------------------|
|-----------------------|
|-----------------------|
|-----------------------|
|-----------------------|
|-0000000--0000--|Palm Mute

Riff 4 (Chorus 1) (0:33)
Guitar 1
|----------------------------|
|----------------------------|
|----------------------------|
|-0h6--0h6--0h6--0h6--|
|-0h6--0h6--0h6--0h6--|
|-0h6--0h6--0h6--0h6--|
Guitar 2
|----------------------------|
|----------------------------|
|----------------------------|
|---0h6--0h6--6-6h0----|
|---0h6--0h6--6-6h0----|
|---0h6--0h6--6-6h0----|
[ Tab from: http://www.guitartabs.cc/tabs/s/static_x/structural_defect_tab.html ]
Verse 1 (Riff 2) (0:50)
Guitar 1
|-----------------------|
|-----------------------|
|-----------------------|
|-----------------------|
|-----------------------|
|-0000000--0000--|Palm Mute
Guitar 2
|-----------------------|
|-----------------------|
|-----------------------|
|-----------------------|
|-----------------------|
|-0000000--0000--|Palm Mute

Chorus 2 (1:06)
Both guitars
|----------------------------|
|----------------------------|
|----------------------------|
|-0h6--0h6--0h6--0h6--|
|-0h6--0h6--0h6--0h6--|
|-0h6--0h6--0h6--0h6--|

Verse 2 (Riff 2) (1:23)
Guitar 1
|-----------------------|
|-----------------------|
|-----------------------|
|-----------------------|
|-----------------------|
|-0000000--0000--|Palm Mute
Guitar 2
|-----------------------|
|-----------------------|
|-----------------------|
|-----------------------|
|-----------------------|
|-0000000--0000--|Palm Mute

Chorus 2 (1:40)
Both guitars
|----------------------------|
|----------------------------|
|----------------------------|
|-0h6--0h6--0h6--0h6--|
|-0h6--0h6--0h6--0h6--|
|-0h6--0h6--0h6--0h6--|

Interlude (1:57)
Guitar 1
|-----------------------|
|-----------------------|
|-----------------------|
|-----------------------|
|-----------------------|
|-0000000--0000--|Palm Mute
Guitar 2
|-----------------------|
|-----------------------|
|-----------------------|
|-----------------------|
|-----------------------|
|-0000000--0000--|Palm Mute

Chorus 2 (2:30)
Both guitars
|----------------------------|
|----------------------------|
|----------------------------|
|-0h6--0h6--0h6--0h6--|
|-0h6--0h6--0h6--0h6--|
|-0h6--0h6--0h6--0h6--|

Bridge (2:47)
Both guitars
|----------------------------|
|----------------------------|
|----------------------------|
|--2~~~~------------------|
|--2~~~~---Let ring------|
|--2~~~~------------------|

Chorus 1 (3:04)
Guitar 1
|----------------------------|
|----------------------------|
|----------------------------|
|-0h6--0h6--0h6--0h6--|
|-0h6--0h6--0h6--0h6--|
|-0h6--0h6--0h6--0h6--|
Guitar 2
|----------------------------|
|----------------------------|
|----------------------------|
|-(0h6)--0h6--6-6h0----|
|-(0h6)--0h6--6-6h0----|
|-(0h6)--0h6--6-6h0----|
Comments