Static-x - Start A War Chords & Tabs

 

Start A War Chords & Tabs

Static-x Chords & Tabs

Version: 1 Type: Tab 0 ratings
1 star 2 stars 3 stars 4 stars 5 stars
comments

Start A War Tab

Tabber: Chris Smith
Band: Static-X
Song: Start a War
Album: Start a War
Date Tabbed: 6/21/2005

. = Palm Mute
/ = Slide
^ = Bend Up

Intro/Chorus
D|-----------------------------------------|
A|-----------------------------------------|
F|-----------------------------------------|
C|-2-2-2--3--3---2-2-2-2--3--3-------------|
G|-2-2-2--3--3---2-2-2-2--3--3-------------|
C|-2-2-2--3--3---2-2-2-2--3--3-------------|

Verse
D|-----------------------------------------|
A|-----------------------------------------|
F|-----------------------------------------|
C|-----------------------------------------|
G|-0-0-0-----------------------------------|
C|-0-0-0-----------------------------------|
   . . .

Bridge
D|-----------------------------------------|
A|-----------------------------------------|
F|-----------------------------------------|
C|-2/3---2/3--2/3--2/3---------------------|
G|-2/3---2/3--2/3--2/3---------------------|
C|-2/3---2/3--2/3--2/3---------------------|
[ Tab from: http://www.guitartabs.cc/tabs/s/static_x/start_a_war_tab.html ]
Bridge 2 Gtr. 1
D|-----------------------------------------|
A|-----------------------------------------|
F|-----------------------------------------|
C|-0-0-0--8-7--0-0-0--6-5--0-0-0--4-3------|
G|-0-0-0--8-7--0-0-0--6-5--0-0-0--4-3------|
C|-0-0-0--8-7--0-0-0--6-5--0-0-0--4-3------|
   . . .       . . .       . . .

D|-----------------------------------------|
A|-----------------------------------------|
F|-----------------------------------------|
C|-0-0--0-0--0-0--0-0----------------------|
G|-0-0--0-0--0-0--0-0----------------------|
C|-0-0--0-0--0-0--0-0----------------------|
   . .  . .  . .  . .

Bridge 2 Gtr. 2
D|-----------------------------------------|
A|-------20^------20^------21^-------------|
F|-----------------------------------------|
C|-0-0-0----0-0-0----0-0-0-----------------|
G|-0-0-0----0-0-0----0-0-0-----------------|
C|-0-0-0----0-0-0----0-0-0-----------------|

D|-----------------------------------------|
A|-----------------------------------------|
F|-----------------------------------------|
C|-0-0--0-0--0-0--0-0----------------------|
G|-0-0--0-0--0-0--0-0----------------------|
C|-0-0--0-0--0-0--0-0----------------------|
   . .  . .  . .  . .

Intro/Chorus
Verse
Intro/Chorus
Verse
Intro/Chorus
Bridge
Bridge 2
Verse
Intro/Chorus
Bridge 2
Comments