Static-x - So Chords & Tabs

 

So Chords & Tabs

Static-x Chords & Tabs

Version: 2 Type: Tab 0 ratings
1 star 2 stars 3 stars 4 stars 5 stars
comments

So Tab

tabbed by: Camren Braley
Email: syco_holiday@hotmail.com

Tuning: Drop C

Artist: Static-X
Song: So
Album: Shadow Zone

INTRO (piano, arranged for guitar)

-------------------------------------------------------|
--4--2~--4--2~--5--4~--5--4~--4--2~--4--2~--5--4~------|
----------------------------------------------------6--|
----------------------------------------------------x--|
----------------------------------------------------4--|
-------------------------------------------------------|
                                                    ^Use Volume

INTRO 2
Guitar 1
-----------------------------------------------------------------------|
-----------------------------------------------------------------------|
--666666666666-666666666666-444444444444-222222222222-444444-----------|
--xxxxxxxxxxxx-xxxxxxxxxxxx-xxxxxxxxxxxx-xxxxxxxxxxxx-xxxxxx-----------|
--444444444444-444444444444-222222222222-000000000000-222222-----------|
-----------------------------------------------------------------------| 

Guitar 2
-----------------------------------------------------------------------|
-----------------------------------------------------------------------|
--666666666666-888888888888-444444444444-222222222222-444444-----------|
--xxxxxxxxxxxx-xxxxxxxxxxxx-xxxxxxxxxxxx-xxxxxxxxxxxx-xxxxxx-----------|
--444444444444-666666666666-222222222222-000000000000-222222-----------|
-----------------------------------------------------------------------|

Guitar 1
-----------------------------------------------------------------------|
-----------------------------------------------------------------------|
--666666666666-666666666666-444444444444-222222222222-4----------------|
--xxxxxxxxxxxx-xxxxxxxxxxxx-xxxxxxxxxxxx-xxxxxxxxxxxx-x----------------|
--444444444444-444444444444-222222222222-000000000000-2----------------|
-----------------------------------------------------------------------| 


Guitar 2
-----------------------------------------------------------------------|
-----------------------------------------------------------------------|
--666666666666-888888888888-444444444444-222222222222-4----------------|
--xxxxxxxxxxxx-xxxxxxxxxxxx-xxxxxxxxxxxx-xxxxxxxxxxxx-x----------------|
--444444444444-666666666666-222222222222-000000000000-2----------------|
-----------------------------------------------------------------------|



verse (Guitar 1)
play:
|-----|
|-----|
|-----|
|-----|
|-6-7-|
|-----|

about midway through the verse you can hear:
--------|
--------|
--------|
----7*--|
-----7*-|
--------|


CHORUS 1

Guitar 1
-----------------------------------------------------------------------|
-----------------------------------------------------------------------|
--666666666666-666666666666-444444444444-222222222222-444444-----------|
--xxxxxxxxxxxx-xxxxxxxxxxxx-xxxxxxxxxxxx-xxxxxxxxxxxx-xxxxxx-----------|
--444444444444-444444444444-222222222222-000000000000-222222-----------|
-----------------------------------------------------------------------| 

Guitar 2
-----------------------------------------------------------------------|
-----------------------------------------------------------------------|
--666666666666-888888888888-444444444444-222222222222-444444-----------|
--xxxxxxxxxxxx-xxxxxxxxxxxx-xxxxxxxxxxxx-xxxxxxxxxxxx-xxxxxx-----------|
--444444444444-666666666666-222222222222-000000000000-222222-----------|
-----------------------------------------------------------------------|

[ Tab from: http://www.guitartabs.cc/tabs/s/static_x/so_tab_ver_2.html ]
verse (Guitar 1)
play:
|-----|
|-----|
|-----|
|-----|
|-6-7-|
|-----|


you hear this a couple times during verse
--------|
--------|
--------|
----7*--|
-----7*-|
--------|

Guitar 2 during 2nd Verse
------------|
------------|
-11~--14~---|
--x----x----|
-13~--16~---|
------------|


CHORUS 2

Guitar 1
-----------------------------------------------------------------------|
-----------------------------------------------------------------------|
--666666666666-666666666666-444444444444-222222222222-444444-----------|
--xxxxxxxxxxxx-xxxxxxxxxxxx-xxxxxxxxxxxx-xxxxxxxxxxxx-xxxxxx-----------|
--444444444444-444444444444-222222222222-000000000000-222222-----------|
-----------------------------------------------------------------------| 

Guitar 2
-----------------------------------------------------------------------|
-----------------------------------------------------------------------|
--666666666666-888888888888-444444444444-222222222222-444444-----------|
--xxxxxxxxxxxx-xxxxxxxxxxxx-xxxxxxxxxxxx-xxxxxxxxxxxx-xxxxxx-----------|
--444444444444-666666666666-222222222222-000000000000-222222-----------|
-----------------------------------------------------------------------|



BRIDGE
-------------------------------------|
-------------------------------------|
------11-12-14-16--------------------|
-4-----x--x--x--x--------------------|
-4-----9-10-12-14--------------------|
-4-----------------------------------|


INTERLUDE
-----------------------------|
--4--2~--4--2~--5--4~--5--4~-|
-----------------------------|
-----------------------------|
-----------------------------|
-----------------------------|
                     ^solo starts here

SOLO
---------------------------------------|
----------------------------------5*---|
--7*~----------------7*----------------|
---------------------------------------|
------5*~--7*~-----------5*---7*-------|
---------------------------------------|


cool part after the solo

-------------|
-------------|
-666666------|
-xxxxxx------|
-444444------|


FINAL CHORUS

Guitar 1
-----------------------------------------------------------------------|
-----------------------------------------------------------------------|
--666666666666-666666666666-444444444444-222222222222-444444-----------|
--xxxxxxxxxxxx-xxxxxxxxxxxx-xxxxxxxxxxxx-xxxxxxxxxxxx-xxxxxx-----------|
--444444444444-444444444444-222222222222-000000000000-222222-----------|
-----------------------------------------------------------------------| 

Guitar 2
-----------------------------------------------------------------------|
-----------------------------------------------------------------------|
--666666666666-888888888888-444444444444-222222222222-444444-----------|
--xxxxxxxxxxxx-xxxxxxxxxxxx-xxxxxxxxxxxx-xxxxxxxxxxxx-xxxxxx-----------|
--444444444444-666666666666-222222222222-000000000000-222222-----------|
-----------------------------------------------------------------------|
ALL OF THIS x2


OUTRO
-------------------------------------|
-------------------------------------|
------11-12-14-16--------------------|4X
-4-----x--x--x--x--------------------|
-4-----9-10-12-14--------------------|
-4-----------------------------------|




-----------------------------|
--4--2~--4--2~--5--4~--5--4~-|
-----------------------------|
-----------------------------| x2
-----------------------------|
-----------------------------|

it may not all be correct but im pretty sure this is 100% right unless heres a typo but enjoy! Rate this
Comments