Static X - Push It Chords & Tabs

 

Push It Chords & Tabs

Static X Chords & Tabs

Version: 7 Type: Tab 0 ratings
1 star 2 stars 3 stars 4 stars 5 stars
comments

Push It Tab

Static-X
Push It
Tuning: Drop C (CGCFAD)
This is the complete version for this great song, 
i saw them at mexico city and i think this is 100% accurate.
Tabbed by :  DaNieL MenDozA

INTRO
                                               x2
D|-10---10-----10---10-----10---10-----10---10-----|
A|--x----x------x----x------x----x------x----x-----|
F|--8----8------8----8------8----8------8----8-----|
C|-------------------------------------------------|
G|-------------------------------------------------|
C|-----0---0~~-----0---0~~-----0---0~~-----0---0~~-|

                                                  
D|-------------------------------------------------|
A|-------------------------------------------------|
F|-------------------------------------------------|
C|---------223-2223-223-2223-223-2223-223-2223~~---|
G|---------223-2223-223-2223-223-2223-223-2223~~---|
C|-10\-2---223-2223-223-2223-223-2223-223-2223~~---|


D|------------------------------10---10-------------|
A|-------------------------------x----x-------------|
F|-------------------------------8----8-------------|
C|---223-2223-223-2223-223-2223---------------------|
G|---223-2223-223-2223-223-2223---------------------|
C|---223-2223-223-2223-223-2223-----0---0~~---------|

VERSE
                                                  x2
D|--------------------------------------------------|
A|--------------------------------------------------|
F|--------------------------------------------------|
C|-223-2223-223-2223-223-2223-223-2223--------------|
G|-223-2223-223-2223-223-2223-223-2223--------------|
C|-223-2223-223-2223-223-2223-223-2223--------------|


CHORUS
[ Tab from: http://www.guitartabs.cc/tabs/s/static_x/push_it_tab_ver_7.html ]
D|--------------------------------------------------|
A|--------------------------------------------------|
F|--------------------------------------------------|
C|-223-2223-223-2223-223-2223-223-2223--------------|
G|-223-2223-223-2223-223-2223-223-2223--------------|
C|-223-2223-223-2223-223-2223-223-2223--------------|

D|--------------------------------------------------|
A|--------------------------------------------------|
F|--------------------------------------------------|
C|-223-2223-223-2223-223-2223-3-223-223-------------|
G|-223-2223-223-2223-223-2223-3-223-223-------------|
C|-223-2223-223-2223-223-2223-3-223-223-------------|


BRIDGE
                       
D|-10---10-----10---10-----10---10-----10---10-----|
A|--x----x------x----x------x----x------x----x-----|
F|--8----8------8----8------8----8------8----8-----|
C|-------------------------------------------------|
G|-------------------------------------------------|
C|-----0---0~~-----0---0~~-----0---0~~-----0---0~~-|
     i see it    i need it    i see it  i need it

D|-----------)----------)---------)----------------|
A|---------17)--------17)-------17)----------------|
F|---------19---------19--------19-----------------|
C|-223-2223---223-2223--223-2223--223-2223---------|
G|-223-2223---223-2223--223-2223--223-2223---------|
C|-223-2223---223-2223--223-2223--223-2223---------|

D|--------------------------------------------------|
A|--------------------------------------------------|
F|--------------------------------------------------|
C|-3~~~~~------------1~~~~~-------------------------|
G|-3~~~~~------------1~~~~~-------------------------|
C|-3~~~~~------------1~~~~~-------------------------|

Any comments mail me at koby_brokenh@hotmail.com
Comments