Static X - Push It Chords & Tabs

 

Push It Chords & Tabs

Static X Chords & Tabs

Version: 4 Type: Tab 1 rating
1 star 2 stars 3 stars 4 stars 5 stars
comments

Push It Tab

push it by static x
tabed by teel
DROP C TUNING 

this tab is 100 percent correct

opening

-------------------
-------------------
-8--8-----8--8-----
-------------------
-------------------
--0--0-0---0---0-0-

next
[ Tab from: http://www.guitartabs.cc/tabs/s/static_x/push_it_tab_ver_4.html ]
--------------------------------------
--------------------------------------
-------------------------------8--8---
--------------------------------------
-0-0-3-0-0-0-3--0-0-3-0-0-0-3---------
-0-0-3-0-0-0-3--0-0-3-0-0-0-3---0--0-0
 then words come in"corrosive tainted by my sin..
  main riff
------------------------------
------------------------------
------------------------------
------------------------------
-0-0-3-0-0-0-3---0-0-3-0-0-0-3
-0-0-3-0-0-0-3---0-0-3-0-0-0-3

other part

------------------------------------
------------------------------------
-------------b7--------------b7-----
------------------------------------
------------------------------------
-0-0-6-0-0-0-----0-0-6-0-0-0--------

i see it  whoa i need  it!

----------------
----------------
-8---8----------
----------------
----------------
---0---0-0------
  my mind is cororsive i drip..
---------
---------
---------
-3--1----
-3--1----
-3--1----

thats all the parts os the song
alls u have to do is listen to the song  
and u will easily be able to locate
these parts and play the song  really easily.
Comments