Static X - Push It Chords & Tabs

 

Push It Chords & Tabs

Static X Chords & Tabs

Version: 10 Type: Tab

Push It Tab

   
Static-X
Wisconsin Death Trip
Push It

b-bend
r-let ring

Intro prt. 1

Guitar 1
|---------|
|---------|
|-8---8---|
|-x---x---|
|-6---6---|
|---0---0-| x8

downward slide

Intro prt. 2


Guitars 1 & 2       4th time
|---------------|    |---------------| |---------------|
|---------------|    |---------------| |---------------|
|---------------|    |---------------| |---------------|
|-0-0-3-0-0-5-3-|    |-0-0-3-0-0-0-5-| |-0-0-3-0-0-5-3-|
|-0-0-3-0-0-5-3-|    |-0-0-3-0-0-0-5-| |-0-0-3-0-0-5-3-|
|-0-0-3-0-0-5-3-| x3 |-0-0-3-0-0-0-5-| |-0-0-3-0-0-5-3-| x3 

|---------|
|---------|
|-8---8---|
|-x---x---|
|-6---6---|
|---0---0-|

Verse

Guitars 1 & 2
|---------------| 
|---------------| 
|---------------| 
|-0-0-3-0-0-5-3-|
|-0-0-3-0-0-5-3-|
|-0-0-3-0-0-5-3-| x8

Chorus
[ Tab from: http://www.guitartabs.cc/tabs/s/static_x/push_it_tab_ver_10.html ]
Guitars 1 & 2
|---------------|    |---------------|    |---------------| 
|---------------|    |---------------|    |---------------| 
|---------------|    |---------------|    |---------------| 
|-0-0-3-0-0-5-3-|    |-3-0-0-3-0-5-3-|    |-3-0-0-3-0-0-3-|
|-0-0-3-0-0-5-3-|    |-3-0-0-3-0-5-3-|    |-3-0-0-3-0-0-3-|
|-0-0-3-0-0-5-3-| x4 |-3-0-0-3-0-5-3-| x3 |-3-0-0-3-0-0-3-|

verse

chorus

Guitars 1 & 2
|---------------|    |---------------|    |---------------| 
|---------------|    |---------------|    |---------------| 
|---------------|    |---------------|    |---------------| 
|-0-0-3-0-0-5-3-|    |-3-0-0-3-0-5-3-|    |-3-0-0-3-0-0-3-|
|-0-0-3-0-0-5-3-|    |-3-0-0-3-0-5-3-|    |-3-0-0-3-0-0-3-|
|-0-0-3-0-0-5-3-| x4 |-3-0-0-3-0-5-3-| x3 |-3-0-0-3-0-0-3-|
                                              . .   . .

intro prt. 1

Brigde 1

Guitars 1 & 2
|-----------------|    |---------------|
|-------------13b-|    |---------------|
|-----------------|    |---------------|
|-0-0-3-0-0-0-----|    |-0-0-3-0-0-0-0-| 
|-0-0-3-0-0-0-----|    |-0-0-3-0-0-0-0-| 
|-0-0-3-0-0-0-----| x3 |-0-0-3-0-0-0-0-| 
  . .   . . .            . .   . . . .
 
intro pr.t 1

Bridge 2
|-------| |---------------|    |-------|
|-------| |---------------|    |-------|
|-------| |---------------|    |-------|
|-5r-3r-| |-0-0-3-0-0-5-3-|    |-5r-3r-|
|-5r-3r-| |-0-0-3-0-0-5-3-|    |-5r-3r-|
|-5r-3r-| |-0-0-3-0-0-5-3-| x4 |-5r-3r-|

Chorus

End