Static X - Permanence Chords & Tabs

 

Permanence Chords & Tabs

Static X Chords & Tabs

Version: 3 Type: Tab 0 ratings
1 star 2 stars 3 stars 4 stars 5 stars
comments

Permanence Tab

   
i had a go at doing the riffs 2 this song and wen 2 c them live and from wot i could
c it wasnt 2 far off, i made some corrections and it sounds good if u put some overdrive
on.
im sure its tuning is this :(C G C F A D)


1#
D|--------------------------------|    
A|--------------------------------|    
F|--------------------------------|
C|-05-05-05-5-55-05-05-05-0555-05-|
G|-05-05-05-5-55-05-05-05-0555-05-| 
C|-05-05-05-5-55-05-05-05-0555-05-|

2# riff
D|------(-----5-)-|
A|------(-----5-)-|
C|-4-2------------| 
G|-4-2------------|
C|-4-2------------|

3# riff
D|---------------------------|
A|---------------------------|
F|---------------------------|
C|-1--0-0-1--0-0-1-0-1-0-1-0-|
G|-1--0-0-1--0-0-1-0-1-0-1-0-|
C|-1--0-0-1--0-0-1-0-1-0-1-0-|
[ Tab from: http://www.guitartabs.cc/tabs/s/static_x/permanence_tab_ver_3.html ]
4# riff
D|---------------------|
A|---------------------|
C|-4----2----1----0----|
G|-4----2----1----0----|
C|-4----2----1----0----|

#5 riff (played over #4 2, listen to the song and u can hear where this comes in)
D|-------------------------------------------------------------------------|
A|-------------------------------------------------------------------------|
F|-10101010101010101010101010101010-888888888888-777777777777-666666666666-|
C|-x-x-x-x-x-x-x-x-x-x-x-x-x-x-x-x--xxxxxxxxxxxx-xxxxxxxxxxxx-xxxxxxxxxxxx-|
G|-8-8-8-8-8-8-8-8-8-8-8-8-8-8-8-8--666666666666-555555555555-444444444444-|
C|-------------------------------------------------------------------------|

#6 riff
D|----------------------------------|
A|----------------------------------|
F|----------------------------------|
C|-05-05-05-5-55-05-05-05-0555-05-3-|
G|-05-05-05-5-55-05-05-05-0555-05-3-|
C|-05-05-05-5-55-05-05-05-0555-05-3-|
Comments