Static X - Permanence Chords & Tabs

 

Permanence Chords & Tabs

Static X Chords & Tabs

Version: 1 Type: Tab 0 ratings
1 star 2 stars 3 stars 4 stars 5 stars
comments

Permanence Tab

   
 BITCHIN' TABS

          URL: www.angelfire.com/goth/btab/
	EMAIL: btabmaster@hotmail.com

         THIS IS A BITCHIN' TABS EXCLUSIVE TAB

 ----------------------------------------------------------------------------------------------

	     SONG: Permanence
	     BAND: Static-X
	    ALBUM: Machine
   TRANSCRIBED BY: Chris Frazier
	     DATE: 06-08-2K1

 ----------------------------------------------------------------------------------------------

	TUNING: Drop D and down 1 step (C G C F A D)

     Riff 1:
    D|--------------------------------|
    A|--------------------------------|
    F|--------------------------------|
    C|-05-05-05-5-55-05-05-05-0555-05-|
    G|-05-05-05-5-55-05-05-05-0555-05-|
    C|-05-05-05-5-55-05-05-05-0555-05-|
     PM -  -  - -  -  -  -  -    -  -

     Riff 2:
    D|------(-----5-)-|
    A|------(-----5-)-|
    F|------(x4-x---)-| Play what's in the (x)'s to make
    C|-4-2------------| the little electronic noise b/t riffs.
    G|-4-2------------|
    C|-4-2------------|
[ Tab from: http://www.guitartabs.cc/tabs/s/static_x/permanence_tab.html ]
     Riff 3:
    D|---------------------------|
    A|---------------------------|
    F|---------------------------|
    C|-1--0-0-1--0-0-1-0-1-0-1-0-|
    G|-1--0-0-1--0-0-1-0-1-0-1-0-|
    C|-1--0-0-1--0-0-1-0-1-0-1-0-|
     PM   - -    - -   -   -   -

     Riff 4:
    D|---------------------|
    A|---------------------|
    F|---------------------|
    C|-4----2----1----0----|
    G|-4----2----1----0----|
    C|-4----2----1----0----|

     Riff 5:
    D|-------------------------------------------------------------------------|
    A|-------------------------------------------------------------------------|
    F|-10101010101010101010101010101010-888888888888-777777777777-666666666666-| Played behind
    C|-x-x-x-x-x-x-x-x-x-x-x-x-x-x-x-x--xxxxxxxxxxxx-xxxxxxxxxxxx-xxxxxxxxxxxx-|    riff 4
    G|-8-8-8-8-8-8-8-8-8-8-8-8-8-8-8-8--666666666666-555555555555-444444444444-|
    C|-------------------------------------------------------------------------|

     Riff 6:
    D|----------------------------------|
    A|----------------------------------|
    F|----------------------------------|
    C|-05-05-05-5-55-05-05-05-0555-05-3-|
    G|-05-05-05-5-55-05-05-05-0555-05-3-|
    C|-05-05-05-5-55-05-05-05-0555-05-3-|
     PM -  -  - -  -  -  -  -    -  -
Comments