Static-x - Otsegoletric Chords & Tabs

 

Otsegoletric Chords & Tabs

Static-x Chords & Tabs

Version: 1 Type: Tab 0 ratings
1 star 2 stars 3 stars 4 stars 5 stars
comments

Otsegoletric Tab

   
Static-X - Otsegolectric - Shadow Zone

Tabbed by Elvisz (elvisz@kornkids.com)
Tuning : 6 String Tuned Low to High (C G C F a d) (Drop d)

Vocal: Wayne Static
Background Vocal: Tony Campos
Guitar1: Wayne Static
Guitar2: Trip Rex Eisen
Bass: Tony Campos
Drum: Nick Oshiro

Intro:(Guitar1 & Guitar2)
d|----------------------------------------------|
a|----------------------------------------------|
F|----------------------------------------------|
C|----------------------------------------------|
G|----------------------------------------------|
C|-0-00-0-00-8~-00-0-00-5~-00-00-0-7~-00-0-00-0-|

d|-----------------------------------------------|
a|-----------------------------------------------|
F|-----------------------------------------------|
C|-----------------------------------------------|
G|-----------------------------------------------|
C|-0-00-0-00-8~-00-0-00-10~-00-00-0-7~-00-0-00-0-|

Verse1:(Guitar1 & Guitar2)
d|------|
a|------|
F|------|
C|------|
G|-2232-|
C|-2232-|
   ....   .palm mute

Verse2:
d|------|
a|------|
F|------|	(Guitar1)
C|------|
G|-2232-|
C|-2232-|
   ....   .palm mute

d|-7---7--8---8-10---10-8---8-|
a|---5------5------5------5---|
F|----------------------------|
C|----------------------------|
G|----------------------------|
C|----------------------------|

Chorus:(Guitar1 & Guitar2)
d|----------------------------------------------|
a|----------------------------------------------|
F|----------------------------------------------|
C|----------------------------------------------|
G|----------------------------------------------|
C|-0-00-0-00-8~-00-0-00-5~-00-00-0-7~-00-0-00-0-|

d|-----------------------------------------------|
a|-----------------------------------------------|
F|-----------------------------------------------|
C|-----------------------------------------------|
G|-----------------------------------------------|
C|-0-00-0-00-8~-00-0-00-10~-00-00-0-7~-00-0-00-0-|

Verse1:(Guitar1 & Guitar2)
d|------|---|
a|------|---|
F|------|---|
C|------|---|
G|-2232-|-5-|
C|-2232-|-5-|
   ....   .   .palm mute

Verse2:
d|------|---|
a|------|---|
F|------|---|	(Guitar1)
C|------|---|
G|-2232-|-5-|
C|-2232-|-5-|
   ....   .   .palm mute

d|-7---7--8---8-10---10-8---8-|
a|---5------5------5------5---|
F|----------------------------|
C|----------------------------|
G|----------------------------|
C|----------------------------|

Chorus:(Guitar1 & Guitar2)
d|----------------------------------------------|
a|----------------------------------------------|
F|----------------------------------------------|
C|----------------------------------------------|
G|----------------------------------------------|
C|-0-00-0-00-8~-00-0-00-5~-00-00-0-7~-00-0-00-0-|
[ Tab from: http://www.guitartabs.cc/tabs/s/static_x/otsegoletric_tab.html ]
d|-----------------------------------------------|
a|-----------------------------------------------|
F|-----------------------------------------------|
C|-----------------------------------------------|
G|-----------------------------------------------|
C|-0-00-0-00-8~-00-0-00-10~-00-00-0-7~-00-0-00-0-|

Chorus-end:
d|---------------------------|
a|---------------------------|
F|---------------------------|	(Guitar1)
C|---------------------------|
G|-5~~~~~~-------------------|
C|-5~~~~~~-00-0-00-00-0-0-0--|

d|------8--------------------|
a|---9-----------------------|
F|----11---------------------|	(Guitar2)
C|---------------------------|
G|---------------------------|
C|---------00-0-00-00-0-0-0--|

Bridge1:(Guitar1 & Guitar2)
d|---------------------------------------------|
a|---------------------------------------------|
F|---------------------------------------------|
C|---------------------------------------------|
G|---------------------------------------------|
C|-00-0-0-0-0-00-0-0-0-0-00-0-0-0-0-00-0-0-0-0-|

Bridge2:
d|------|---|
a|------|---|
F|------|---|	(Guitar1)
C|------|---|
G|-2232-|-5-|
C|-2232-|-5-|
   ....   .   .palm mute

d|--------------------------------------------------------------------------|
a|--------------------------------------------------------------------------|
F|-777788887777888810101010888810101010121212121313131312121212101010108888-|
C|-xxxxxxxxxxxxxxxxxxxxxxxxxxxxxxxxxxxxxxxxxxxxxxxxxxxxxxxxxxxxxxxxxxxxxxxx-|
G|-5555666655556666 8 8 8 86666 8 8 8 8101010101111111110101010 8 8 8 86666-|
C|--------------------------------------------------------------------------|

Verse2:
d|------|---|
a|------|---|
F|------|---|	(Guitar1)
C|------|---|
G|-2232-|-5-|
C|-2232-|-5-|
   ....   .   .palm mute

d|-7---7--8---8-10---10-8---8-|
a|---5------5------5------5---|
F|----------------------------|
C|----------------------------|
G|----------------------------|
C|----------------------------|

Chorus:(Guitar1 & Guitar2)
d|----------------------------------------------|
a|----------------------------------------------|
F|----------------------------------------------|
C|----------------------------------------------|
G|----------------------------------------------|
C|-0-00-0-00-8~-00-0-00-5~-00-00-0-7~-00-0-00-0-|

d|-----------------------------------------------|
a|-----------------------------------------------|
F|-----------------------------------------------|
C|-----------------------------------------------|
G|-----------------------------------------------|
C|-0-00-0-00-8~-00-0-00-10~-00-00-0-7~-00-0-00-0-|

Chorus-end:
d|---------------------------|
a|---------------------------|
F|---------------------------|	(Guitar1)
C|---------------------------|
G|-5~~~~~~-------------------|
C|-5~~~~~~-00-0-00-00-0-0-0--|

d|------8--------------------|
a|---9-----------------------|
F|----11---------------------|	(Guitar2)
C|---------------------------|
G|---------------------------|
C|---------00-0-00-00-0-0-0--|

Outro:(Guitar1 & Guitar2)
d|---------------------------------------------|
a|---------------------------------------------|
F|---------------------------------------------|
C|---------------------------------------------|
G|---------------------------------------------|
C|-00-0-0-0-0-00-0-0-0-0-00-0-0-0-0-00-0-0-0-0-|
Comments