Static-x - Otsegolectric Chords & Tabs

 

Otsegolectric Chords & Tabs

Static-x Chords & Tabs

Version: 1 Type: Bass Tab 0 ratings
1 star 2 stars 3 stars 4 stars 5 stars
comments

Otsegolectric Bass Tab

   
~~~~~~~~~~~~~~~~~~~~~~~static-x~~~~~~~~~~~~~~~~~~~~~~~~~~~

~~~~~~~~~~~~~~~~~~~~~otsegolectric~~~~~~~~~~~~~~~~~~~~~~~~

song: otsegolectric
by zack anderson
shadow zone

Intro 
G|------------------------------------------------------|
D|--------5------2------4--------5------2-------4-------|
A|-2-2222---2222---2222---2-2222---2222---2222----2222--| x2
E|------------------------------------------------------|

Verse 1
G|---------|
D|---------|
A|---------| x4
E|-3-3-4-3-| 

Chorus
G|------------------------------------------------------|
D|--------5------2------4--------5------2-------4-------|
A|-2-2222---2222---2222---2-2222---2222---2222----2222--| x1
E|------------------------------------------------------|

Verse 2
G|---------|
D|---------|
A|---------| x8
E|-3-3-4-3-| 

Chorus
G|------------------------------------------------------|
D|--------5------2------4--------5------2-------4-------|
A|-2-2222---2222---2222---2-2222---2222---2222----2222--| x1
E|------------------------------------------------------|
[ Tab from: http://www.guitartabs.cc/tabs/s/static_x/otsegolectric_btab.html ]
Verse 3
G|---------------------------------|
D|---------------------------------|
A|-2~----5-------------------------|  x3
E|---------2-2-3-1--1-1-1-1-2-1----|
continued...
G|------------------------------------------------|
D|------------------------------------------------|
A|-2~----5----------------------------------------| 
E|---------2-2-3--1-1-1-1-2-1-1-1-1-2-1-1-1-1-2-3-|

Verse 4
G|----------------------|
D|----------------------|
A|------------6---------| x16
E|-3-3-4-3-|  ^played on every repeat

Chorus
G|------------------------------------------------------|
D|--------5------2------4--------5------2-------4-------|
A|-2-2222---2222---2222---2-2222---2222---2222----2222--| x2
E|------------------------------------------------------|

Bridge
G|-----------------------------|
D|-2~---5----------------------|
A|--------2-2-3-2--1-1-1-1-2-1-|
E|-----------------------------|

Outro
G|------------------------------------------------|
D|------------------------------------------------|
A|-2~----5----------------------------------------| 
E|---------2-2-3--1-1-1-1-2-1-1-1-1-2-1-1-1-1-2-3-|
Comments