Static X - Im With Stupid Chords & Tabs

 

Im With Stupid Chords & Tabs

Static X Chords & Tabs

Version: 2 Type: Tab 0 ratings
1 star 2 stars 3 stars 4 stars 5 stars
comments

Im With Stupid Tab

Hey my names glenn and I goofed up in tabbing this song before so heres the correction.
[ Tab from: http://www.guitartabs.cc/tabs/s/static_x/im_with_stupid_tab_ver_2.html ]
INTRO
                                     x4
|----------------------------------
|----------------------------------
|----------------------------------
|----------------------------------
|-0-0-00-0-0-0-00-0-0-0-00-0-0-0-13
|-0-0-00-0-0-0-00-0-0-0-00-0-0-0-13
                                                    x4
|------------------------------------------------
|------------------------------------------------
|------------------------------------------------
|------------------------------------------------
|-2--2-2-2-2--2-2--2-2-2-2--2-2--2-2-2-2--2-2-2-3
|-2--2-2-2-2--2-2--2-2-2-2--2-2--2-2-2-2--2-2-2-3
                                                    x4 
|------------------
|------------------
|------------------
|------------------
|-22-2-22-2-22-2-22
|-00-0-00-0-00-0-00
  
after this you sort of slide up and down the guitar

VERSE

|---------------------------------
|---------------------------------
|---------------------------------
|-3-3-33-3-3-3-33-3-3-3-33-3-3-3-4
|-3-3-33-3-3-3-33-3-3-3-33-3-3-3-4
|-1-1-11-1-1-1-11-1-1-1-11-1-1-1-2 

CHORUS

|----------------------------------
|----------------------------------
|----------------------------------
|----------------------------------
|-0-0-00-0-0-0-00-0-0-0-00-0-0-0-13
|-0-0-00-0-0-0-00-0-0-0-00-0-0-0-13

OK thanks for being patient and not hunting me down or something
Comments