Static X - Im With Stupid Chords & Tabs

 

Im With Stupid Chords & Tabs

Static X Chords & Tabs

Version: 1 Type: Tab 1 rating
1 star 2 stars 3 stars 4 stars 5 stars
comments

Im With Stupid Tab

   
Static-X
I'm With Stupid
Wisconsin Death Trip


Tuning: C F A# D# G C


INTRO
                                                     x4
|------------------------------------------------------|
|------------------------------------------------------|
|------------------------------------------------------|
|------------------------------------------------------|
|------------------------------------------------------|
|-0--0-0-0-0--0-0--0-0-0-0--0-0--0-0-0-0--0-0--0--13~~-|

                                                     x4
|------------------------------------------------------|
|------------------------------------------------------|
|------------------------------------------------------|
|-2--2-2-2-2--2-2--2-2-2-2--2-2--2-2-2-2--2-2--2--3----|
|-2--2-2-2-2--2-2--2-2-2-2--2-2--2-2-2-2--2-2--2--3----|
|-0--0-0-0-0--0-0--0-0-0-0--0-0--0-0-0-0--0-0--0--1----|
  .  .......  ...  .......  ...  .......  ...  .

                         x4
|--------------------------|
|--------------------------|
|--------------------------|
|-2-2--2-2-2--2-2-2--2-2-2-|
|-2-2--2-2-2--2-2-2--2-2-2-|
|-0-0--0-0-0--0-0-0--0-0-0-|


VERSE
                                                  x4
|---------------------------------------------------|
|---------------------------------------------------|
|---------------------------------------------------|
|-3--3--3-3--3-3--3--3-3--3-3--3--3-3--3-3--3--4----|
|-3--3--3-3--3-3--3--3-3--3-3--3--3-3--3-3--3--4----|
|-1--1--1-1--1-1--1--1-1--1-1--1--1-1--1-1--1--2----|
  .  .  ...  ...  .  ...  ...  .  ...  ...  .


CHORUS
                                                     x4
|------------------------------------------------------|
|------------------------------------------------------|
|------------------------------------------------------|
|------------------------------------------------------|
|------------------------------------------------------|
|-0--0-0-0-0--0-0--0-0-0-0--0-0--0-0-0-0--0-0--0--13~~-|


BRIDGE
                         x3
|--------------------------|
|--------------------------|
|--------------------------|
|-2-2--2-2-2--2-2-2--2-2-2-|
|-2-2--2-2-2--2-2-2--2-2-2-|
|-0-0--0-0-0--0-0-0--0-0-0-|


|----------------------|
|----------------------|
|----------------------|
|-2-2--2-2-2--2-2-2--2-|
|-2-2--2-2-2--2-2-2--2-|
|-0-0--0-0-0--0-0-0--0-|

[ Tab from: http://www.guitartabs.cc/tabs/s/static_x/im_with_stupid_tab.html ]
VERSE 2
                                                  x4
|---------------------------------------------------|
|---------------------------------------------------|
|---------------------------------------------------|
|-3--3--3-3--3-3--3--3-3--3-3--3--3-3--3-3--3--4----|
|-3--3--3-3--3-3--3--3-3--3-3--3--3-3--3-3--3--4----|
|-1--1--1-1--1-1--1--1-1--1-1--1--1-1--1-1--1--2----|
  .  .  ...  ...  .  ...  ...  .  ...  ...  .


CHORUS 2
                                                     x4
|------------------------------------------------------|
|------------------------------------------------------|
|------------------------------------------------------|
|------------------------------------------------------|
|------------------------------------------------------|
|-0--0-0-0-0--0-0--0-0-0-0--0-0--0-0-0-0--0-0--0--13~~-|


BRIDGE 2 - Bass only


VERSE 3
                                                  x4
|---------------------------------------------------|
|---------------------------------------------------|
|---------------------------------------------------|
|-3--3--3-3--3-3--3--3-3--3-3--3--3-3--3-3--3--4----|
|-3--3--3-3--3-3--3--3-3--3-3--3--3-3--3-3--3--4----|
|-1--1--1-1--1-1--1--1-1--1-1--1--1-1--1-1--1--2----|
  .  .  ...  ...  .  ...  ...  .  ...  ...  .


SOLO

 Guitar 1                                    x4
|----------------------------------------------|
|-20-20--20-19-19--19-18-18--18-17-16-17-18----|
|-23-23--23-22-22--22-21-21--21-20-19-20-21----|
|----------------------------------------------|
|----------------------------------------------|
|----------------------------------------------|
|Guitar 2                                    x4
|-22-22--22-22-22--22-22-22--22-22-22----------|
|----------------------------------------------|
|----------------------------------------------|
|----------------------------------------------|
|----------------------------------------------|
|----------------------------------------------|


CHORUS 3 - Guitars tacet first 4 bars

                                                     x4
|------------------------------------------------------|
|------------------------------------------------------|
|------------------------------------------------------|
|------------------------------------------------------|
|------------------------------------------------------|
|-0--0-0-0-0--0-0--0-0-0-0--0-0--0-0-0-0--0-0--0--13~~-|


OUTRO
                         x4
|--------------------------|
|--------------------------|
|--------------------------|
|-2-2--2-2-2--2-2-2--2-2-2-|
|-2-2--2-2-2--2-2-2--2-2-2-|
|-0-0--0-0-0--0-0-0--0-0-0-|
Comments