Static-x - Im The One Chords & Tabs

 

Im The One Chords & Tabs

Static-x Chords & Tabs

Version: 5 Type: Tab 0 ratings
1 star 2 stars 3 stars 4 stars 5 stars
comments

Im The One Tab

   
I not sure with all tunning but the two first strings are right so play !
Tuning (A# F B E G C)

Intro
|---------------------------------------|
|---------------------------------------|
|---------------------------------------|
|---------------------------------------|
|---------------------------------------|
|--0-0-3*--0-0-3*--0-0-3*----0-0-1-3----|

Verse
|-------------------------------|
|-------------------------------|
|-------------------------------|
|-------------------------------| Listen the rythm  
|-------------------------------|
|----0-0--0-0--0-0--0-0--1-3----|

Pre Chorus
|-----------------------------------|
|-----------------------------------|
|-----------------------------------|
|-----------------------------------|
|-----------------------------------|
|--0-0-3*--0-0-3*--0-0-3*----0-0----|
[ Tab from: http://www.guitartabs.cc/tabs/s/static_x/im_the_one_tab_ver_5.html ]
Chorus
|--------------------------------------------------------------------------|
|--------------------------------------------------------------------------|
|--------------------------------------------------------------------------|
|--------------------------------------------------------------------------|
|----8-8-8-8-8-8-8-8-------------------8-8-8-8-8-8-8-8---------------------|
|----8-8-8-8-8-8-8-8--0-0-0-0-0-0-0-0-8-8-8-8-8-8-8-8--0-0-0-0-0-0-0-0----|

|---------------------------------------------------------------------------|
|---------------------------------------------------------------------------|
|---------------------------------------------------------------------------|
|---------------------------------------------------------------------------|
|-8-8-8-8-8-8-8-8-------------------8-8-8-8-8-8-8-8--10-10-10-10-10-10-10-10|
|-8-8-8-8-8-8-8-8--0-0-0-0-0-0-0-0-8-8-8-8-8-8-8-8-10-10-10-10-10-10-10-10|


Bridge
|------------------------------------------------------------------------|
|------------------------------------------------------------------------|
|------------------------------------------------------------------------|
|------------------------------------------------------------------------|
|------------------------------------8-8-8-8-8-8-8-8-10-10-10-10-10-10--|
|----0-0-3*--0-0-3*--0-0-3*--0-0-3*--8-8-8-8-8-8-8-8--10-10-10-10-10-10--|

I don't speak english very good , because I'm french but I hope you understand me ! 
Enjoy!
fred_durst67@hotmail.com
Comments