Static-x - Im The One Chords & Tabs

 

Im The One Chords & Tabs

Static-x Chords & Tabs

Version: 4 Type: Tab 0 ratings
1 star 2 stars 3 stars 4 stars 5 stars
comments

Im The One Tab

   
-------------------------------------------------------------------------------
			     I'M THE ONE - Static-X
-------------------------------------------------------------------------------
Tabbed by: slyo
Email: sly@davidhurst.net

Tuning: Drop D 2 steps down so: A# F A# D# G C

+ natural harmoic
. palm mute

You can play the natural harmonic on 2.7 too. It was easier just
for me to write 6.

Riff 1:
C |---------------------------------------------------------------------------|
G |---------------------------------------------------------------------------|
D#|---------------------------------------------------------------------------| 2x
A#|-0-0----0-0----0-0----0-0-1-3----------------------------------------------|
F |-0-0----0-0----0-0----0-0-1-3----------------------------------------------|
A#|-0-0-6--0-0-6--0-0-6--0-0-1-3----------------------------------------------|
        +      +      +

Riff 2:
C |---------------------------------------------------------------------------|
G |---------------------------------------------------------------------------| 
D#|---------------------------------------------------------------------------| 8x
A#|-0-0---0-0--0--0--0--0-1-3-------------------------------------------------|
F |-0-0---0-0--0--0--0--0-1-3-------------------------------------------------|
A#|-0-0---0-0--0--0--0--0-1-3-------------------------------------------------|

Riff 1 (variation):
C |---------------------------------------------------------------------------|
G |---------------------------------------------------------------------------|
D#|---------------------------------------------------------------------------|
A#|-0-0----0-0----0-0----0-0--------------------------------------------------|
F |-0-0----0-0----0-0----0-0--------------------------------------------------|
A#|-0-0-6--0-0-6--0-0-6--0-0--------------------------------------------------|
        +      +      +

Riff 3:
C |---------------------------------------------------------------------------|
G |---------------------------------------------------------------------------|
D#|-3-3-3-3-3-3-3-3-----------------------------------------------------------| 3x
A#|-3-3-3-3-3-3-3-3-0-0-0-0-0-0-0-0-------------------------------------------|
F |-1-1-1-1-1-1-1-1-0-0-0-0-0-0-0-0-------------------------------------------|
A#|-----------------0-0-0-0-0-0-0-0-------------------------------------------|
[ Tab from: http://www.guitartabs.cc/tabs/s/static_x/im_the_one_tab_ver_4.html ]
Riff 3 ending:
C |---------------------------------------------------------------------------|
G |---------------------------------------------------------------------------|
D#|-3-3-3-3-3-3-3-3-3-3-3-3-3-3-3-3-------------------------------------------|
A#|-3-3-3-3-3-3-3-3-5-5-5-5-5-5-5-5-------------------------------------------|
F |-1-1-1-1-1-1-1-1-3-3-3-3-3-3-3-3-------------------------------------------|
A#|---------------------------------------------------------------------------|

Riff 2: 8x
Riff 1 (variation): 1x
Riff 3: 3x
Riff 3 ending: 1x

C |---------------------------------------------------------------------------|
G |---------------------------------------------------------------------------|
D#|---------------------------------------------------------------------------|
A#|-0-0----0-0----0-0----0-0--------------------------------------------------|
F |-0-0----0-0----0-0----0-0--------------------------------------------------|
A#|-0-0-6--0-0-6--0-0-6--0-0-6------------------------------------------------|
        +      +      +      +

C |---------------------------------------------------------------------------|
G |---------------------------------------------------------------------------|
D#|---------------------------------------------------------------------------|
A#|-0-0---0-0---0-0---0-0---0-0----0-0----0-0----0-0--------------------------|
F |-0-0---0-0---0-0---0-0---0-0----0-0----0-0----0-0--------------------------|
A#|-0-0---0-0---0-0---0-0---0-0-6--0-0-6--0-0-6--0-0-6------------------------|
    . .   . .   . .   . .   . . +  . . +  . . +  . . +

Riff 1: 1x
Riff 1 (varation): 1x


C |---------------------------------------------------------------------------| \
G |---------------------------------------------------------------------------|  \
D#|---------------------------------------------------------------------------|   \
A#|-3-3-3-3-3-3-3-3-5-5-5-5-5-5-5-5-------------------------------------------|    \
F |-3-3-3-3-3-3-3-3-5-5-5-5-5-5-5-5-------------------------------------------|     \
A#|-3-3-3-3-3-3-3-3-5-5-5-5-5-5-5-5-------------------------------------------|      \
                                                                                      | 3x
C |---------------------------------------------------------------------------|      /
G |---------------------------------------------------------------------------|     /
D#|---------------------------------------------------------------------------|    /
A#|-0-0----0-0----0-0----0-0--------------------------------------------------|   /
F |-0-0----0-0----0-0----0-0--------------------------------------------------|  /
A#|-0-0-6--0-0-6--0-0-6--0-0-6------------------------------------------------| /
        +      +      +      +

Riff 1 (variation): 1x
Riff 3: 3x
Riff 3 ending: 1x
Riff 2: 4x

C |---------------------------------------------------------------------------|
G |---------------------------------------------------------------------------|
D#|---------------------------------------------------------------------------|
A#|-0-0-----------------------------------------------------------------------|
F |-0-0-----------------------------------------------------------------------|
A#|-0-0-----------------------------------------------------------------------|
Comments