Static-x - Im The One Chords & Tabs

 

Im The One Chords & Tabs

Static-x Chords & Tabs

Version: 2 Type: Bass Tab

Im The One Bass Tab

   
intro  F|----------|
       C|----------|
       G|----------|   x3
       C|-0-0-5----|


       F|---------|
       C|---------|
       G|---------|
       C|-0-0-1-3-|


verse  F|-------------------------|
       C|-------------------------|
       G|-------------------------|  x8
       C|-0-0--0-0--0-0-0-0-1-3---|


       F|------------------|
       C|------------------|
       G|------------------|
       C|-0-0--0-0--0-0----|


chorus F|-----------------------------------------------------------------|
       C|-----------------------------------------------------------------|
       G|--------11111111--------33333333--------55555555-----------------|
       C|11111111--------11111111--------11111111--------1111111133333333-|

[ Tab from: http://www.guitartabs.cc/tabs/s/static_x/im_the_one_btab_ver_2.html ]
verse  F|-------------------------|
       C|-------------------------|
       G|-------------------------|  x6
       C|-0-0--0-0--0-0-0-0-1-3---|


       F|-------------------|
       C|-------------------|
       G|-------------------|
       C|-0-0--0-0--0-0-----|


chorus F|-----------------------------------------------------------------|
       C|-----------------------------------------------------------------|
       G|--------11111111--------33333333--------55555555-----------------|
       C|11111111--------11111111--------11111111--------1111111133333333-|

       F|--------------------|
       C|--------------------|
       G|--------------------|
       C|-0-0--0-0--0-0--0-0-|

     sry peps this is all i got  ut the rest isnt to hard to figure out:)