Static-x - Im The One Chords & Tabs

 

Im The One Chords & Tabs

Static-x Chords & Tabs

Version: 1 Type: Bass Tab 0 ratings
1 star 2 stars 3 stars 4 stars 5 stars
comments

Im The One Bass Tab

Static-X
I'm The One
Start A War


Intro/Verse/Start of Chorus

F-----------------------------------|
C-----------------------------------|
G-----------------------------------|
C-----0-0--0-0--0-0--0-0-1-3--------|

Chorus

F------------------------------------------------------------------------|
C------------------------------------------------------------------------|
G:--1-1-1-1-1-1-1-1------------------------------------------------------|
C------------------------0-0-0-0-0-0-0-0---------------------------------|

End Of Chorus


F------------------------------------------------------------------------|
C------------------------------------------------------------------------|
G:--1-1-1-1-1-1-1-1-3-3-3-3-3-3------------------------------------------|
C------------------------------------------------------------------------|

Interlude
[ Tab from: http://www.guitartabs.cc/tabs/s/static_x/im_the_one_btab.html ]
F------------------------------------------------------------------------|
C------------------------------------------------------------------------|
G:-----------------------------------------------------------------------|
C---0-0--0-0--0-0--0-0---------------------------------------------------|

Interlude 2

F--------------------|
C--------------------|
G:-------------------|
C---0/---------------|

Bridge


F-------------------------------------------------------------------------|
C-------------------------------------------------------------------------|
G-----------------------------3-3-3-3-3-3-3-3--5-5-5-5-5-5-5-5------------|
C----0-0--0-0--0-0--0-0---------------------------------------------------|

Arrangement

Intro x6
Verse x4
Start of Chorus x1
Chorus x3
End Of Chorus x1
Intro x2
Verse x4
Start of Chorus x1
Chorus x3
End of Chorus x1
Interlude x3
Interlude 2 x1
Intro x1
Bridge x 4
Interlude x2
Chorus x3
End of Chorus x1
Intro x4
Comments