Static X - Get To The Gone Chords & Tabs

 

Get To The Gone Chords & Tabs

Static X Chords & Tabs

Version: 5 Type: Tab 0 ratings
1 star 2 stars 3 stars 4 stars 5 stars
comments

Get To The Gone Tab

Static-X
Get To The Gone
Tuning- Drop C (from low to high:CGCFAD)
Time- 2:49
Tabbed by: thedude22

0:01-0:12
D -------------------------------------------------------------------|
A -------------------------------------------------------------------|
F -------------------------------------------------------------------|
C --7-7-7-7-7-7-7--3-3-3-3-3-3--2-2-2-2-2-2--1-1-1-1--7-7-7-7-6------|
G --7-7-7-7-7-7-7--3-3-3-3-3-3--2-2-2-2-2-2--1-1-1-1--7-7-7-7-6------|
C --7-7-7-7-7-7-7--3-3-3-3-3-3--2-2-2-2-2-2--1-1-1-1--7-7-7-7-6------|
                                                                       x2
D -------------------------------------------------------------------|
A -------------------------------------------------------------------|
F -------------------------------------------------------------------|
C --7-7-7-7-7-7-7--3-3-3-3-3-3--2-2-2-2-2-2--0-0-0-0-0---------------|
G --7-7-7-7-7-7-7--3-3-3-3-3-3--2-2-2-2-2-2--0-0-0-0-0---------------|
C --7-7-7-7-7-7-7--3-3-3-3-3-3--2-2-2-2-2-2--0-0-0-0-0---------------|

0:12-0:24
D ---------------------------------|
A ---------------------------------|
F ---------------------------------|
C --7--0--6--0--0-6-0-0-6-0-0-6----|  x4
G --7--0--6--0--0-6-0-0-6-0-0-6----|
C --7--0--6--0--0-6-0-0-6-0-0-6----|

0:24-0:36
D -------------|
A -------------|
F -------------|
C --7-0-6-0----|  x4
G --7-0-6-0----|
C --7-0-6-0----|

0:36-0:48
D ---------------------------------|
A ---------------------------------|
F ---------------------------------|
C --7--0--6--0--0-6-0-0-6-0-0-6----|  x4
G --7--0--6--0--0-6-0-0-6-0-0-6----|
C --7--0--6--0--0-6-0-0-6-0-0-6----|

0:48-1:00
D -------------|
A -------------|
F -------------|
C --7-0-6-0----|  x4
G --7-0-6-0----|
C --7-0-6-0----|
[ Tab from: http://www.guitartabs.cc/tabs/s/static_x/get_to_the_gone_tab_ver_5.html ]
1:00-1:12
D -------------------------------------------------------------------|
A -------------------------------------------------------------------|
F -------------------------------------------------------------------|
C --7-7-7-7-7-7-7--3-3-3-3-3-3--2-2-2-2-2-2--1-1-1-1--7-7-7-7-6------|
G --7-7-7-7-7-7-7--3-3-3-3-3-3--2-2-2-2-2-2--1-1-1-1--7-7-7-7-6------|
C --7-7-7-7-7-7-7--3-3-3-3-3-3--2-2-2-2-2-2--1-1-1-1--7-7-7-7-6------|
                                                                       x2
D -------------------------------------------------------------------|
A -------------------------------------------------------------------|
F -------------------------------------------------------------------|
C --7-7-7-7-7-7-7--3-3-3-3-3-3--2-2-2-2-2-2--0-0-0-0-0---------------|
G --7-7-7-7-7-7-7--3-3-3-3-3-3--2-2-2-2-2-2--0-0-0-0-0---------------|
C --7-7-7-7-7-7-7--3-3-3-3-3-3--2-2-2-2-2-2--0-0-0-0-0---------------|

1:12-1:24
D ---------------------------------|
A ---------------------------------|
F ---------------------------------|
C --7--0--6--0--0-6-0-0-6-0-0-6----|  x4
G --7--0--6--0--0-6-0-0-6-0-0-6----|
C --7--0--6--0--0-6-0-0-6-0-0-6----|

1:24-1:36
D -------------|
A -------------|
F -------------|
C --7-0-6-0----|  x4
G --7-0-6-0----|
C --7-0-6-0----|

1:36-1:48
D -------------------------------------------------------------------|
A -------------------------------------------------------------------|
F -------------------------------------------------------------------|
C --7-7-7-7-7-7-7--3-3-3-3-3-3--2-2-2-2-2-2--1-1-1-1--7-7-7-7-6------|
G --7-7-7-7-7-7-7--3-3-3-3-3-3--2-2-2-2-2-2--1-1-1-1--7-7-7-7-6------|
C --7-7-7-7-7-7-7--3-3-3-3-3-3--2-2-2-2-2-2--1-1-1-1--7-7-7-7-6------|
                                                                       x2
D -------------------------------------------------------------------|
A -------------------------------------------------------------------|
F -------------------------------------------------------------------|
C --7-7-7-7-7-7-7--3-3-3-3-3-3--2-2-2-2-2-2--0-0-0-0-0---------------|
G --7-7-7-7-7-7-7--3-3-3-3-3-3--2-2-2-2-2-2--0-0-0-0-0---------------|
C --7-7-7-7-7-7-7--3-3-3-3-3-3--2-2-2-2-2-2--0-0-0-0-0---------------|

1:48-1:53
D -----------|
A -----------|
F -----------|
C --3-3-3-3--|  x8
G --3-3-3-3--|
C --3-3-3-3--|

1:53-1:54
D -----------|
A -----------|
F -----------|
C --4-4-4-4--|
G --4-4-4-4--|
C --4-4-4-4--|

1:54-2:00
D ---------------------------------|
A ---------------------------------|
F ---------------------------------|
C --7--0--6--0--0-6-0-0-6-0-0-6----|  x2
G --7--0--6--0--0-6-0-0-6-0-0-6----|
C --7--0--6--0--0-6-0-0-6-0-0-6----|

2:00-2:04
D -----------|
A -----------|
F -----------|
C --3-3-3-3--|  x8
G --3-3-3-3--|
C --3-3-3-3--|

2:04-2:06
D -------------------|
A -------------------|
F -------------------|
C --2-2-2-1-1-1-0-0--|
G --2-2-2-1-1-1-0-0--|
C --2-2-2-1-1-1-0-0--|

2:06-2:12
D ---------------------------------|
A ---------------------------------|
F ---------------------------------|
C --7--0--6--0--0-6-0-0-6-0-0-6----|  x2
G --7--0--6--0--0-6-0-0-6-0-0-6----|
C --7--0--6--0--0-6-0-0-6-0-0-6----|

2:12-2:24
(Quietly)
D ---------|
A ---------|
F ---------|
C ---------|  x3
G --0-0-0--|
C --0-0-0--|

2:24-2:36...
D ---------------------------------|
A ---------------------------------|
F ---------------------------------|
C --7--0--6--0--0-6-0-0-6-0-0-6----|  x8
G --7--0--6--0--0-6-0-0-6-0-0-6----|
C --7--0--6--0--0-6-0-0-6-0-0-6----|

Want more Static-X tabs or have comments?  IM me...etniesfrk06
Comments