Static X - Get To The Gone Chords & Tabs

 

Get To The Gone Chords & Tabs

Static X Chords & Tabs

Version: 4 Type: Tab 0 ratings
1 star 2 stars 3 stars 4 stars 5 stars
comments

Get To The Gone Tab

   
===============================================================================
Song: Get To The Gone	
Artist: Static-X
Tuning: D,A,F,C,G,C  from High to Low  
Tabbed by: The Same Man_99
Date: 11.03.2002

===============================================================================

Intro

|--------------------|
|--------------------|
|--------------------| 
|--------------------|
|--0--3--2--1--0--6--|
|--0--3--2--1--0--6--| You have to play this very fast. Hear the song for the timing. 
                       These are just the Chords.

Chorus

|-----------------------------------------|
|-----------------------------------------|
|-----------------------------------------|
|-----------------------------------------|
|--0--0--6--0---0--6--0---0--6--0---0--6--|
|--0--0--6--0---0--6--0---0--6--0---0--6--|

Verse
[ Tab from: http://www.guitartabs.cc/tabs/s/static_x/get_to_the_gone_tab_ver_4.html ]
|--------------|
|--------------|
|--------------|
|--------------|
|--0--0--6--0--|
|--0--0--6--0--| Hear the song for the timing. You play this one time,
                 and now you wait for the next time to play this

Bridge 1

|-----------------------------------------------------------------|
|-----------------------------------------------------------------|
|-----------------------------------------------------------------| 
|-3-3-3-3-3-3-3-3-3-3-3-3-3-3-3-3-3-3-3-3-3-3-3-3-3-3-3-3-4-4-4-4-|
|-3-3-3-3-3-3-3-3-3-3-3-3-3-3-3-3-3-3-3-3-3-3-3-3-3-3-3-3-4-4-4-4-|
|-3-3-3-3-3-3-3-3-3-3-3-3-3-3-3-3-3-3-3-3-3-3-3-3-3-3-3-3-4-4-4-4-|

Bridge 2

|-----------------------------------------------------------------|
|-----------------------------------------------------------------|
|-----------------------------------------------------------------| 
|-3-3-3-3-3-3-3-3-3-3-3-3-3-3-3-3-3-3-3-3-3-3-3-3-3-3-3-3-1-1-1-1-|
|-3-3-3-3-3-3-3-3-3-3-3-3-3-3-3-3-3-3-3-3-3-3-3-3-3-3-3-3-1-1-1-1-|
|-3-3-3-3-3-3-3-3-3-3-3-3-3-3-3-3-3-3-3-3-3-3-3-3-3-3-3-3-1-1-1-1-|
Comments