Static X - Get To The Gone Chords & Tabs

 

Get To The Gone Chords & Tabs

Static X Chords & Tabs

Version: 1 Type: Tab 0 ratings
1 star 2 stars 3 stars 4 stars 5 stars
comments

Get To The Gone Tab

STATIC-X
Song: Get To The Gone
Album: Machine
Tabbed by: djdeezal@yahoo.com
========================================= 
Tuning - Drop D, down one step (CGCFAD)



Riff 1 (intro riff)
======

D|----------------------------|------------------------------|
A|----------------------------|------------------------------|
F|----------------------------|------------------------------|
C|----------------------------|------------------------------|
G|----------------------------|------------------------------|
C|---0000--0000--3333--3322---|---2200--0000--7777--6--------|
.... .... .... .... .... .... .... .

D|----------------------------|------------------------------|
A|----------------------------|------------------------------|
F|----------------------------|------------------------------|
C|----------------------------|------------------------------|
G|----------------------------|------------------------------|
C|---0000--0000--3333--3322---|---2222--1111--0000--0--------|
.... .... .... .... .... .... .... .



Riff 2 (chorus riff)
======

D|----------------------------|------------------------------|
A|----------------------------|------------------------------|
F|----------------------------|------------------------------|
C|---7-0---6-0---0-0---6-0----|---0-0---6-0---0-0---6--------|
G|---7-0---6-0---0-0---6-0----|---0-0---6-0---0-0---6--------|
C|---7-0---6-0---0-0---6-0----|---0-0---6-0---0-0---6--------|



Riff 3 (verse riff)
======

D|----------------------------|------------------------------|
A|----------------------------|------------------------------|
F|----------------------------|------------------------------|
C|---7-0---6-0---(0)----------|------------------------------|
G|---7-0---6-0---(0)----------|------------------------------|
C|---7-0---6-0---(0)----------|------------------------------|



Riff 4 (interlude)
======
[ Tab from: http://www.guitartabs.cc/tabs/s/static_x/get_to_the_gone_tab.html ]
D|----------------------------|------------------------------|
A|----------------------------|------------------------------|
F|----------------------------|------------------------------|
C|---3-3---3-3---3-3---3-3----|---3-3---3-3---3-3---3-3------| 
G|---3-3---3-3---3-3---3-3----|---3-3---3-3---3-3---3-3------|
C|---3-3---3-3---3-3---3-3----|---3-3---3-3---3-3---3-3------|


D|----------------------------|------------------------------|
A|----------------------------|------------------------------|
F|----------------------------|------------------------------|
C|---3-3---3-3---3-3---3-3----|---3-3---3-3---4-4---4-4------| 
G|---3-3---3-3---3-3---3-3----|---3-3---3-3---4-4---4-4------|
C|---3-3---3-3---3-3---3-3----|---3-3---3-3---4-4---4-4------|


D|----------------------------|------------------------------|
A|----------------------------|------------------------------|
F|----------------------------|------------------------------|
C|---7-0---6-0---0-0---6-0----|---0-0---6-0---0-0---6--------| x2
G|---7-0---6-0---0-0---6-0----|---0-0---6-0---0-0---6--------|
C|---7-0---6-0---0-0---6-0----|---0-0---6-0---0-0---6--------|

D|----------------------------|------------------------------|
A|----------------------------|------------------------------|
F|----------------------------|------------------------------|
C|---3-3---3-3---3-3---3-3----|---3-3---3-3---3-3---3-3------| 
G|---3-3---3-3---3-3---3-3----|---3-3---3-3---3-3---3-3------|
C|---3-3---3-3---3-3---3-3----|---3-3---3-3---3-3---3-3------|


D|----------------------------|------------------------------|
A|----------------------------|------------------------------|
F|----------------------------|------------------------------|
C|---3-3---3-3---3-3---3-3----|---2-2---2-1---1-1---0-0------| 
G|---3-3---3-3---3-3---3-3----|---2-2---2-1---1-1---0-0------|
C|---3-3---3-3---3-3---3-3----|---2-2---2-1---1-1---0-0------|



SONG STRUCTURE
==============
- Riff 1 x2
- Riff 2 x4
- Riff 3 x4
- Riff 2 x4
- Riff 3 x4
- Riff 1 x2
- Riff 2 x4
- Riff 3 x4
- Riff 1 x2
- Riff 4 
- Riff 2 x2

===================
Guitar break 4 bars
===================

- Riff 2 x8

thats it! this band rules!! for more go to:
Hometown.aol.com/deejaydeezal
Comments