Static X - Get To The Gone Chords & Tabs

 

Get To The Gone Chords & Tabs

Static X Chords & Tabs

Version: 1 Type: Chords 0 ratings
1 star 2 stars 3 stars 4 stars 5 stars
comments

Get To The Gone Chords

   
Get To The Gone by Static-X
Guitarist: Wayne Static & Tripp Eisen
Album: Machine
Dif.: 6
Tabbed by Twiggy5

NOTE: Tune to Drop C (C G C F A D)

Intro
   pm-------------|    pm--------------|
G|----------------5------------------2--|
C|-0--3--2--1--6--5---0--3--2--1--3--2--|
 Trem pik-------|       trem pik------|

Chorus
G|-0-0-6-0---0-6-0---0-6-0--0-6--|
C|-0-0-6-0---0-6-0---0-6-0--0-6--|

Verse ("Get to the gone it’s…")
G|-0-0-6-0---R-------------|
C|-0-0-6-0---R-------------|

Bridge P1 ("Get to it…")
G|--3------4------|
C|--3(28x)-4(4x)--|
[ Tab from: http://www.guitartabs.cc/tabs/s/static_x/get_to_the_gone_crd.html ]
Bridge P2 ("Get to it…")
G|-3------1------|
C|-3(28x)-1(4x)--|

Keyboard Part (Not right but close enough if you wanna play it on guitar)
A|---------|-%-|-%-|-%-|-10-|
F|-12p10p9-|-%-|-%-|-%-|----|

Song Structure: -
Intro
Chorus ("Get to the gone…")
Verse
Chorus
Verse ("I fly, I fly around the…")
Intro ("Go!! Ahhhhh……")
Chorus ("Get to the gone…")
Verse ("Get to the gone it’s…")
Intro
Bridge P1
Chorus
Bridge P2
Chorus
Keyboard Part
Chorus ("Get to the gone…")

Alright there ya go nice fucking metal song. Nothing much more to say. 
If you have any comments, corrections or suggestions email me at ToXic345x@yahoo.ca
Comments