Static X - Get To The Gone Chords & Tabs

 

Get To The Gone Chords & Tabs

Static X Chords & Tabs

Version: 2 Type: Bass Tab 0 ratings
1 star 2 stars 3 stars 4 stars 5 stars
comments

Get To The Gone Bass Tab

   
Band- Static-X
Song- Get To The Gone

INTRO 

G:|-----------------------------|-----------------------------|
D:|-----------------------3333-2|-----------------------2222-1|
A:|00000000-333333-2--222-------|00000000-333333-2--222-------|
D:|-----------------------------|-----------------------------|

(just play to the tune it's easy)


CHORUS

G:|-----------------------------------|
D:|-----------------------------------|
A:|-----------------------------------|
D:|--2-0---3-0---0-3-0---0-3-0---0-3--|


VERSE
[ Tab from: http://www.guitartabs.cc/tabs/s/static_x/get_to_the_gone_btab_ver_2.html ]
G:|-----------------------------------|
D:|-----------------------------------|
A:|-----------------------------------|
D:|--2-0---3-0------------------------|


BRIDGE

G:|-----------------------------------|
D:|-----------------------------------|
A:|-----------------------------------|
D:|-22222222222222222222222222-3333333|


DRUM+SAMPLES

G:|-----------------------------------|
D:|-----------------------------------|
A:|-----------------------------------|
D:|-1h2\------------------------------|


intro x 2
chorus x 4
verse x 4
chorus x 4
verse x 4
intro x 2
chorus x 4
verse x 4
intro x 2
bridge x 1
chorus x 2
bridge x 1
chorus x 2
drum + samples
chorus x 8


Comments