Static X - Cold Chords & Tabs

 

Cold Chords & Tabs

Static X Chords & Tabs

Version: 9 Type: Tab 0 ratings
1 star 2 stars 3 stars 4 stars 5 stars
comments

Cold Tab

   
Static x - Cold

Tuning: C,G,C,F,A,D

Intro:
Guitar 1 (Heavy Distortion)
|------------------------------------------------------------------|
|------------------------------------------------------------------|
|------------------------------------------------------------------|
|--0--0---x---0---0--0---0--------0--0---x---0---0--0---0----------|
|--0--0---x---0---0--0---0--------0--0---x---0---0--0---0----------|
|--0--0---x---0---0--0---0--------0--0---x---0---0--0---0----------|

Guitar 2 (Slightly Distorted with digital delay)
|-----16------15------13--18-16-15---16------15------13--18-16-15--|
|------------------------------------------------------------------|
|------------------------------------------------------------------|
|------------------------------------------------------------------|
|------------------------------------------------------------------|
|------------------------------------------------------------------|

[ Tab from: http://www.guitartabs.cc/tabs/s/static_x/cold_tab_ver_9.html ]
Verse:
Guitar 1 (Heavy Distortion)
|----------------------------------------------------------|
|----------------------------------------------------------|
|----------------------------------------------------------|
|--0--0---x---0---0--0---0--------0--0---x---0---0--0---0--|
|--0--0---x---0---0--0---0--------0--0---x---0---0--0---0--|
|--0--0---x---0---0--0---0--------0--0---x---0---0--0---0--|

Guitar 2 (Heavy Distortion)
|----------------------------------------------------------|
|----------------------------------------------------------|
|----------------------------------------------------------|
|----------------------------------------------------------|
|--5--5---x---5---5--5---5--------5--5---x---5---5--5---5--|
|--0--0---x---0---0--0---0--------0--0---x---0---0--0---0--|


Chorus:
Both Guitars (Heavy Distortion) 
|------------------------------------------------------------------------------|
|------------------------------------------------------------------------------|
|--7-----------------9-10-11-13-11---5--7--------------------9-10-11-13-11-12--|
|--x-----------------x-x--x--x--x----x--x--------------------x-x--x--x--x--x---|
|--5-----------------7-8--9--11-9----3--5--------------------7-8--9--11-9--10--|
|------------------------------------------------------------------------------|
  "COLD WE'RE SO COLD!      (WE ARE) SO COLD!!WE'RE SO COLD!"

Questions???Comments???   sad_air_732@hotmail.com
Comments