Static X - Cold Chords & Tabs

 

Cold Chords & Tabs

Static X Chords & Tabs

Version: 8 Type: Tab 0 ratings
1 star 2 stars 3 stars 4 stars 5 stars
comments

Cold Tab

   
Song: "Cold"                                                Artist:  Static-X
Album:  Machine
Tab Type: Guitar
Tabbed by:  Christian / silent_warrior_@hotmail.com

This is my first tab.  This song is very simple..tabbed it in an hour.  
Hear the song for timing. Sounds accurate.  E-mail me for questions, 
corrections and comments.


Tuning: C F A# D# G C

Intro and Verse:

C |---------------------------|
G |---------------------------|
D#|---------------------------|
A#|--2--2----2-----2--2---2---|  x16
F |--2--2----2-----2--2---2---|
C |--0--0----0-----0--0---0---|


Chorus:

C |----------------------------| |-----------------------------------|
G |--5-----6--7----6--9----8---| |--4--5-----6--7----6--9----8----9--|
D#|----------------------------| |-----------------------------------| x2
A#|--3-----4--5----4--11--10---| |--2--3-----4--5----4--11--10---11--|
F |----------------------------| |-----------------------------------|
C |----------------------------| |-----------------------------------|

C |----------------------------------|
G |----------------------------------|
D#|----------------------------------|
A#|---SLIDE UP THEN DOWN-------------|
F |---SLIDE UP THEN DOWN-------------|
C |---SLIDE UP THEN DOWN-------------|

C |---------------------------|
G |---------------------------|
D#|---------------------------|
A#|--2--2----2-----2--2---2---|  x8
F |--2--2----2-----2--2---2---|
C |--0--0----0-----0--0---0---|

Chorus:
[ Tab from: http://www.guitartabs.cc/tabs/s/static_x/cold_tab_ver_8.html ]
C |----------------------------| |-----------------------------------|
G |--5-----6--7----6--9----8---| |--4--5-----6--7----6--9----8----9--|
D#|----------------------------| |-----------------------------------| x2
A#|--3-----4--5----4--11--10---| |--2--3-----4--5----4--11--10---11--|
F |----------------------------| |-----------------------------------|
C |----------------------------| |-----------------------------------|

C |----------------------------------|
G |----------------------------------|
D#|----------------------------------|
A#|---SLIDE UP THEN DOWN-------------|
F |---SLIDE UP THEN DOWN-------------|
C |---SLIDE UP THEN DOWN-------------|

C |---------------------------|
G |---------------------------|
D#|---------------------------|
A#|--2--2----2-----2--2---2---|  x4
F |--2--2----2-----2--2---2---|
C |--0--0----0-----0--0---0---|

Chorus:

C |----------------------------| |-----------------------------------|
G |--5-----6--7----6--9----8---| |--4--5-----6--7----6--9----8----9--|
D#|----------------------------| |-----------------------------------| x4
A#|--3-----4--5----4--11--10---| |--2--3-----4--5----4--11--10---11--|
F |----------------------------| |-----------------------------------|
C |----------------------------| |-----------------------------------|

C |----------------------------------|
G |----------------------------------|
D#|----------------------------------|
A#|---SLIDE UP THEN DOWN-------------|
F |---SLIDE UP THEN DOWN-------------|
C |---SLIDE UP THEN DOWN-------------|

C |---------------------------|
G |---------------------------|
D#|---------------------------|
A#|--2--2----2-----2--2---2---|  x4
F |--2--2----2-----2--2---2---|
C |--0--0----0-----0--0---0---|
Comments